  0
SECTION
  2
HEADER
  9
$ACADVER
  1
AC1024
  9
$ACADMAINTVER
 70
     6
  9
$DWGCODEPAGE
  3
UNDEFINED
  9
$INSBASE
 10
0.0
 20
0.0
 30
0.0
  9
$EXTMIN
 10
1.000000000000000E+20
 20
1.000000000000000E+20
 30
1.000000000000000E+20
  9
$EXTMAX
 10
-1.000000000000000E+20
 20
-1.000000000000000E+20
 30
-1.000000000000000E+20
  9
$LIMMIN
 10
0.0
 20
0.0
  9
$LIMMAX
 10
12.0
 20
9.0
  9
$ORTHOMODE
 70
     0
  9
$REGENMODE
 70
     1
  9
$FILLMODE
 70
     1
  9
$QTEXTMODE
 70
     0
  9
$MIRRTEXT
 70
     1
  9
$LTSCALE
 40
1.0
  9
$ATTMODE
 70
     1
  9
$TEXTSIZE
 40
0.2
  9
$TRACEWID
 40
0.05
  9
$TEXTSTYLE
  7
Standard
  9
$CLAYER
  8
0
  9
$CELTYPE
  6
ByLayer
  9
$CECOLOR
 62
   256
  9
$CELTSCALE
 40
1.0
  9
$DISPSILH
 70
     0
  9
$DIMSCALE
 40
1.0
  9
$DIMASZ
 40
0.18
  9
$DIMEXO
 40
0.0625
  9
$DIMDLI
 40
0.38
  9
$DIMRND
 40
0.0
  9
$DIMDLE
 40
0.0
  9
$DIMEXE
 40
0.18
  9
$DIMTP
 40
0.0
  9
$DIMTM
 40
0.0
  9
$DIMTXT
 40
0.18
  9
$DIMCEN
 40
0.09
  9
$DIMTSZ
 40
0.0
  9
$DIMTOL
 70
     0
  9
$DIMLIM
 70
     0
  9
$DIMTIH
 70
     1
  9
$DIMTOH
 70
     1
  9
$DIMSE1
 70
     0
  9
$DIMSE2
 70
     0
  9
$DIMTAD
 70
     0
  9
$DIMZIN
 70
     0
  9
$DIMBLK
  1

  9
$DIMASO
 70
     1
  9
$DIMSHO
 70
     1
  9
$DIMPOST
  1

  9
$DIMAPOST
  1

  9
$DIMALT
 70
     0
  9
$DIMALTD
 70
     2
  9
$DIMALTF
 40
25.4
  9
$DIMLFAC
 40
1.0
  9
$DIMTOFL
 70
     0
  9
$DIMTVP
 40
0.0
  9
$DIMTIX
 70
     0
  9
$DIMSOXD
 70
     0
  9
$DIMSAH
 70
     0
  9
$DIMBLK1
  1

  9
$DIMBLK2
  1

  9
$DIMSTYLE
  2
Standard
  9
$DIMCLRD
 70
     0
  9
$DIMCLRE
 70
     0
  9
$DIMCLRT
 70
     0
  9
$DIMTFAC
 40
1.0
  9
$DIMGAP
 40
0.09
  9
$DIMJUST
 70
     0
  9
$DIMSD1
 70
     0
  9
$DIMSD2
 70
     0
  9
$DIMTOLJ
 70
     1
  9
$DIMTZIN
 70
     0
  9
$DIMALTZ
 70
     0
  9
$DIMALTTZ
 70
     0
  9
$DIMUPT
 70
     0
  9
$DIMDEC
 70
     4
  9
$DIMTDEC
 70
     4
  9
$DIMALTU
 70
     2
  9
$DIMALTTD
 70
     2
  9
$DIMTXSTY
  7
Standard
  9
$DIMAUNIT
 70
     0
  9
$DIMADEC
 70
     0
  9
$DIMALTRND
 40
0.0
  9
$DIMAZIN
 70
     0
  9
$DIMDSEP
 70
    46
  9
$DIMATFIT
 70
     3
  9
$DIMFRAC
 70
     0
  9
$DIMLDRBLK
  1

  9
$DIMLUNIT
 70
     2
  9
$DIMLWD
 70
    -2
  9
$DIMLWE
 70
    -2
  9
$DIMTMOVE
 70
     0
  9
$DIMFXL
 40
1.0
  9
$DIMFXLON
 70
     0
  9
$DIMJOGANG
 40
0.7853981633974483
  9
$DIMTFILL
 70
     0
  9
$DIMTFILLCLR
 70
     0
  9
$DIMARCSYM
 70
     0
  9
$DIMLTYPE
  6

  9
$DIMLTEX1
  6

  9
$DIMLTEX2
  6

  9
$DIMTXTDIRECTION
 70
     0
  9
$LUNITS
 70
     2
  9
$LUPREC
 70
     4
  9
$SKETCHINC
 40
0.1
  9
$FILLETRAD
 40
0.5
  9
$AUNITS
 70
     0
  9
$AUPREC
 70
     0
  9
$MENU
  1
.
  9
$ELEVATION
 40
0.0
  9
$PELEVATION
 40
0.0
  9
$THICKNESS
 40
0.0
  9
$LIMCHECK
 70
     0
  9
$CHAMFERA
 40
0.5
  9
$CHAMFERB
 40
0.5
  9
$CHAMFERC
 40
1.0
  9
$CHAMFERD
 40
0.0
  9
$SKPOLY
 70
     0
  9
$TDCREATE
 40
2458987.67153934
  9
$TDUCREATE
 40
2458987.879872685
  9
$TDUPDATE
 40
2458987.67153934
  9
$TDUUPDATE
 40
2458987.879872685
  9
$TDINDWG
 40
0.0000000116
  9
$TDUSRTIMER
 40
0.0000000116
  9
$USRTIMER
 70
     1
  9
$ANGBASE
 50
0.0
  9
$ANGDIR
 70
     0
  9
$PDMODE
 70
     0
  9
$PDSIZE
 40
0.0
  9
$PLINEWID
 40
0.0
  9
$SPLFRAME
 70
     0
  9
$SPLINETYPE
 70
     6
  9
$SPLINESEGS
 70
     8
  9
$HANDSEED
  5
60F
  9
$SURFTAB1
 70
     6
  9
$SURFTAB2
 70
     6
  9
$SURFTYPE
 70
     6
  9
$SURFU
 70
     6
  9
$SURFV
 70
     6
  9
$UCSBASE
  2

  9
$UCSNAME
  2

  9
$UCSORG
 10
0.0
 20
0.0
 30
0.0
  9
$UCSXDIR
 10
1.0
 20
0.0
 30
0.0
  9
$UCSYDIR
 10
0.0
 20
1.0
 30
0.0
  9
$UCSORTHOREF
  2

  9
$UCSORTHOVIEW
 70
     0
  9
$UCSORGTOP
 10
0.0
 20
0.0
 30
0.0
  9
$UCSORGBOTTOM
 10
0.0
 20
0.0
 30
0.0
  9
$UCSORGLEFT
 10
0.0
 20
0.0
 30
0.0
  9
$UCSORGRIGHT
 10
0.0
 20
0.0
 30
0.0
  9
$UCSORGFRONT
 10
0.0
 20
0.0
 30
0.0
  9
$UCSORGBACK
 10
0.0
 20
0.0
 30
0.0
  9
$PUCSBASE
  2

  9
$PUCSNAME
  2

  9
$PUCSORG
 10
0.0
 20
0.0
 30
0.0
  9
$PUCSXDIR
 10
1.0
 20
0.0
 30
0.0
  9
$PUCSYDIR
 10
0.0
 20
1.0
 30
0.0
  9
$PUCSORTHOREF
  2

  9
$PUCSORTHOVIEW
 70
     0
  9
$PUCSORGTOP
 10
0.0
 20
0.0
 30
0.0
  9
$PUCSORGBOTTOM
 10
0.0
 20
0.0
 30
0.0
  9
$PUCSORGLEFT
 10
0.0
 20
0.0
 30
0.0
  9
$PUCSORGRIGHT
 10
0.0
 20
0.0
 30
0.0
  9
$PUCSORGFRONT
 10
0.0
 20
0.0
 30
0.0
  9
$PUCSORGBACK
 10
0.0
 20
0.0
 30
0.0
  9
$USERI1
 70
     0
  9
$USERI2
 70
     0
  9
$USERI3
 70
     0
  9
$USERI4
 70
     0
  9
$USERI5
 70
     0
  9
$USERR1
 40
0.0
  9
$USERR2
 40
0.0
  9
$USERR3
 40
0.0
  9
$USERR4
 40
0.0
  9
$USERR5
 40
0.0
  9
$WORLDVIEW
 70
     1
  9
$SHADEDGE
 70
     3
  9
$SHADEDIF
 70
    70
  9
$TILEMODE
 70
     1
  9
$MAXACTVP
 70
    64
  9
$PINSBASE
 10
0.0
 20
0.0
 30
0.0
  9
$PLIMCHECK
 70
     0
  9
$PEXTMIN
 10
1.000000000000000E+20
 20
1.000000000000000E+20
 30
1.000000000000000E+20
  9
$PEXTMAX
 10
-1.000000000000000E+20
 20
-1.000000000000000E+20
 30
-1.000000000000000E+20
  9
$PLIMMIN
 10
0.0
 20
0.0
  9
$PLIMMAX
 10
12.0
 20
9.0
  9
$UNITMODE
 70
     0
  9
$VISRETAIN
 70
     1
  9
$PLINEGEN
 70
     0
  9
$PSLTSCALE
 70
     1
  9
$TREEDEPTH
 70
  3020
  9
$CMLSTYLE
  2
Standard
  9
$CMLJUST
 70
     0
  9
$CMLSCALE
 40
1.0
  9
$PROXYGRAPHICS
 70
     1
  9
$MEASUREMENT
 70
     0
  9
$CELWEIGHT
370
    -1
  9
$ENDCAPS
280
     0
  9
$JOINSTYLE
280
     0
  9
$LWDISPLAY
290
     1
  9
$INSUNITS
 70
     0
  9
$HYPERLINKBASE
  1

  9
$STYLESHEET
  1

  9
$XEDIT
290
     1
  9
$CEPSNTYPE
380
     0
  9
$PSTYLEMODE
290
     1
  9
$FINGERPRINTGUID
  2
{7527AA99-A0DA-0E9D-CCDD-EF733C4508ED}
  9
$VERSIONGUID
  2
{FAEB1C32-E019-11D5-929B-00C0DF256EC4}
  9
$EXTNAMES
290
     1
  9
$PSVPSCALE
 40
0.0
  9
$OLESTARTUP
290
     0
  9
$SORTENTS
280
   127
  9
$INDEXCTL
280
     0
  9
$HIDETEXT
280
     1
  9
$XCLIPFRAME
280
     2
  9
$HALOGAP
280
     0
  9
$OBSCOLOR
 70
   257
  9
$OBSLTYPE
280
     0
  9
$INTERSECTIONDISPLAY
280
     0
  9
$INTERSECTIONCOLOR
 70
   257
  9
$DIMASSOC
280
     2
  9
$PROJECTNAME
  1

  9
$CAMERADISPLAY
290
     0
  9
$LENSLENGTH
 40
50.0
  9
$CAMERAHEIGHT
 40
0.0
  9
$STEPSPERSEC
 40
2.0
  9
$STEPSIZE
 40
6.0
  9
$3DDWFPREC
 40
2.0
  9
$PSOLWIDTH
 40
0.25
  9
$PSOLHEIGHT
 40
4.0
  9
$LOFTANG1
 40
1.570796326794897
  9
$LOFTANG2
 40
1.570796326794897
  9
$LOFTMAG1
 40
0.0
  9
$LOFTMAG2
 40
0.0
  9
$LOFTPARAM
 70
     7
  9
$LOFTNORMALS
280
     1
  9
$LATITUDE
 40
37.795
  9
$LONGITUDE
 40
-122.394
  9
$NORTHDIRECTION
 40
0.0
  9
$TIMEZONE
 70
 -8000
  9
$LIGHTGLYPHDISPLAY
280
     1
  9
$TILEMODELIGHTSYNCH
280
     1
  9
$CMATERIAL
347
3C
  9
$SOLIDHIST
280
     1
  9
$SHOWHIST
280
     1
  9
$DWFFRAME
280
     2
  9
$DGNFRAME
280
     2
  9
$REALWORLDSCALE
290
     1
  9
$INTERFERECOLOR
 62
   256
  9
$CSHADOW
280
     0
  9
$SHADOWPLANELOCATION
 40
0.0
  0
ENDSEC
  0
SECTION
  2
CLASSES
  0
CLASS
  1
ACDBDICTIONARYWDFLT
  2
AcDbDictionaryWithDefault
  3
ObjectDBX Classes
 90
        0
 91
        4
280
     0
281
     0
  0
CLASS
  1
VISUALSTYLE
  2
AcDbVisualStyle
  3
ObjectDBX Classes
 90
     4095
 91
        4
280
     0
281
     0
  0
CLASS
  1
MATERIAL
  2
AcDbMaterial
  3
ObjectDBX Classes
 90
     1153
 91
        4
280
     0
281
     0
  0
CLASS
  1
SUN
  2
AcDbSun
  3
SCENEOE
 90
     1024
 91
        4
280
     0
281
     0
  0
ENDSEC
  0
SECTION
  2
TABLES
  0
TABLE
  2
VPORT
  5
8
330
0
100
AcDbSymbolTable
 70
     1
  0
VPORT
  5
29
330
8
100
AcDbSymbolTableRecord
100
AcDbViewportTableRecord
  2
*Active
 70
     0
 10
0.0
 20
0.0
 11
1.0
 21
1.0
 12
0.0
 22
0.0
 13
0.0
 23
0.0
 14
0.5
 24
0.5
 15
0.5
 25
0.5
 16
0.0
 26
0.0
 36
1.0
 17
306.0
 27
396.0
 37
0.0
 40
792.0
 41
0.7727272727272727
 42
50.0
 43
0.0
 44
0.0
 50
0.0
 51
0.0
 71
     0
 72
   100
 73
     1
 74
     3
 75
     0
 76
     0
 77
     0
 78
     0
281
     0
 65
     1
110
0.0
120
0.0
130
0.0
111
1.0
121
0.0
131
0.0
112
0.0
122
1.0
132
0.0
 79
     0
146
0.0
 60
     3
 61
     5
292
     1
282
     1
141
0.0
142
0.0
 63
   250
361
3F
  0
ENDTAB
  0
TABLE
  2
LTYPE
  5
5
330
0
100
AcDbSymbolTable
 70
     1
  0
LTYPE
  5
14
330
5
100
AcDbSymbolTableRecord
100
AcDbLinetypeTableRecord
  2
ByBlock
 70
     0
  3

 72
    65
 73
     0
 40
0.0
  0
LTYPE
  5
15
330
5
100
AcDbSymbolTableRecord
100
AcDbLinetypeTableRecord
  2
ByLayer
 70
     0
  3

 72
    65
 73
     0
 40
0.0
  0
LTYPE
  5
16
330
5
100
AcDbSymbolTableRecord
100
AcDbLinetypeTableRecord
  2
Continuous
 70
     0
  3
Solid line
 72
    65
 73
     0
 40
0.0
  0
ENDTAB
  0
TABLE
  2
LAYER
  5
2
330
0
100
AcDbSymbolTable
 70
     1
  0
LAYER
  5
10
330
2
100
AcDbSymbolTableRecord
100
AcDbLayerTableRecord
  2
0
 70
     0
 62
     7
  6
Continuous
370
    -3
390
F
347
3E
  0
ENDTAB
  0
TABLE
  2
STYLE
  5
3
330
0
100
AcDbSymbolTable
 70
     1
  0
STYLE
  5
11
330
3
100
AcDbSymbolTableRecord
100
AcDbTextStyleTableRecord
  2
Standard
 70
     0
 40
0.0
 41
1.0
 50
0.0
 71
     0
 42
0.2
  3
txt
  4

  0
ENDTAB
  0
TABLE
  2
VIEW
  5
6
330
0
100
AcDbSymbolTable
 70
     0
  0
ENDTAB
  0
TABLE
  2
UCS
  5
7
330
0
100
AcDbSymbolTable
 70
     0
  0
ENDTAB
  0
TABLE
  2
APPID
  5
9
330
0
100
AcDbSymbolTable
 70
     1
  0
APPID
  5
12
330
9
100
AcDbSymbolTableRecord
100
AcDbRegAppTableRecord
  2
ACAD
 70
     0
  0
ENDTAB
  0
TABLE
  2
DIMSTYLE
  5
A
330
0
100
AcDbSymbolTable
 70
     1
100
AcDbDimStyleTable
  0
DIMSTYLE
105
27
330
A
100
AcDbSymbolTableRecord
100
AcDbDimStyleTableRecord
  2
Standard
 70
     0
178
     0
340
11
  0
ENDTAB
  0
TABLE
  2
BLOCK_RECORD
  5
1
330
0
100
AcDbSymbolTable
 70
    82
  0
BLOCK_RECORD
  5
1F
330
1
100
AcDbSymbolTableRecord
100
AcDbBlockTableRecord
  2
*Model_Space
340
22
 70
     0
280
     1
281
     0
  0
BLOCK_RECORD
  5
1B
330
1
100
AcDbSymbolTableRecord
100
AcDbBlockTableRecord
  2
*Paper_Space
340
1E
 70
     0
280
     1
281
     0
  0
BLOCK_RECORD
  5
23
330
1
100
AcDbSymbolTableRecord
100
AcDbBlockTableRecord
  2
*Paper_Space0
340
26
 70
     0
280
     1
281
     0
  0
BLOCK_RECORD
  5
40
330
1
100
AcDbSymbolTableRecord
100
AcDbBlockTableRecord
  2
block 2
340
0
102
{BLKREFS
331
41
102
}
 70
     0
280
     1
281
     0
  0
BLOCK_RECORD
  5
45
330
1
100
AcDbSymbolTableRecord
100
AcDbBlockTableRecord
  2
block 3
340
0
102
{BLKREFS
331
46
102
}
 70
     0
280
     1
281
     0
  0
BLOCK_RECORD
  5
4A
330
1
100
AcDbSymbolTableRecord
100
AcDbBlockTableRecord
  2
block 4
340
0
102
{BLKREFS
331
4B
102
}
 70
     0
280
     1
281
     0
  0
BLOCK_RECORD
  5
5D
330
1
100
AcDbSymbolTableRecord
100
AcDbBlockTableRecord
  2
block 5
340
0
102
{BLKREFS
331
5E
102
}
 70
     0
280
     1
281
     0
  0
BLOCK_RECORD
  5
70
330
1
100
AcDbSymbolTableRecord
100
AcDbBlockTableRecord
  2
block 6
340
0
102
{BLKREFS
331
71
102
}
 70
     0
280
     1
281
     0
  0
BLOCK_RECORD
  5
83
330
1
100
AcDbSymbolTableRecord
100
AcDbBlockTableRecord
  2
block 7
340
0
102
{BLKREFS
331
84
102
}
 70
     0
280
     1
281
     0
  0
BLOCK_RECORD
  5
96
330
1
100
AcDbSymbolTableRecord
100
AcDbBlockTableRecord
  2
block 8
340
0
102
{BLKREFS
331
97
102
}
 70
     0
280
     1
281
     0
  0
BLOCK_RECORD
  5
A9
330
1
100
AcDbSymbolTableRecord
100
AcDbBlockTableRecord
  2
block 9
340
0
102
{BLKREFS
331
AA
102
}
 70
     0
280
     1
281
     0
  0
BLOCK_RECORD
  5
BC
330
1
100
AcDbSymbolTableRecord
100
AcDbBlockTableRecord
  2
block 10
340
0
102
{BLKREFS
331
BD
102
}
 70
     0
280
     1
281
     0
  0
BLOCK_RECORD
  5
CF
330
1
100
AcDbSymbolTableRecord
100
AcDbBlockTableRecord
  2
block 11
340
0
102
{BLKREFS
331
D0
102
}
 70
     0
280
     1
281
     0
  0
BLOCK_RECORD
  5
E2
330
1
100
AcDbSymbolTableRecord
100
AcDbBlockTableRecord
  2
block 12
340
0
102
{BLKREFS
331
E3
102
}
 70
     0
280
     1
281
     0
  0
BLOCK_RECORD
  5
F5
330
1
100
AcDbSymbolTableRecord
100
AcDbBlockTableRecord
  2
block 13
340
0
102
{BLKREFS
331
F6
102
}
 70
     0
280
     1
281
     0
  0
BLOCK_RECORD
  5
108
330
1
100
AcDbSymbolTableRecord
100
AcDbBlockTableRecord
  2
block 14
340
0
102
{BLKREFS
331
109
102
}
 70
     0
280
     1
281
     0
  0
BLOCK_RECORD
  5
11B
330
1
100
AcDbSymbolTableRecord
100
AcDbBlockTableRecord
  2
block 15
340
0
102
{BLKREFS
331
11C
102
}
 70
     0
280
     1
281
     0
  0
BLOCK_RECORD
  5
12E
330
1
100
AcDbSymbolTableRecord
100
AcDbBlockTableRecord
  2
block 16
340
0
102
{BLKREFS
331
12F
102
}
 70
     0
280
     1
281
     0
  0
BLOCK_RECORD
  5
141
330
1
100
AcDbSymbolTableRecord
100
AcDbBlockTableRecord
  2
block 17
340
0
102
{BLKREFS
331
142
102
}
 70
     0
280
     1
281
     0
  0
BLOCK_RECORD
  5
154
330
1
100
AcDbSymbolTableRecord
100
AcDbBlockTableRecord
  2
block 18
340
0
102
{BLKREFS
331
155
102
}
 70
     0
280
     1
281
     0
  0
BLOCK_RECORD
  5
167
330
1
100
AcDbSymbolTableRecord
100
AcDbBlockTableRecord
  2
block 19
340
0
102
{BLKREFS
331
168
102
}
 70
     0
280
     1
281
     0
  0
BLOCK_RECORD
  5
17A
330
1
100
AcDbSymbolTableRecord
100
AcDbBlockTableRecord
  2
block 20
340
0
102
{BLKREFS
331
17B
102
}
 70
     0
280
     1
281
     0
  0
BLOCK_RECORD
  5
18D
330
1
100
AcDbSymbolTableRecord
100
AcDbBlockTableRecord
  2
block 21
340
0
102
{BLKREFS
331
18E
102
}
 70
     0
280
     1
281
     0
  0
BLOCK_RECORD
  5
1A0
330
1
100
AcDbSymbolTableRecord
100
AcDbBlockTableRecord
  2
block 22
340
0
102
{BLKREFS
331
1A1
102
}
 70
     0
280
     1
281
     0
  0
BLOCK_RECORD
  5
1B3
330
1
100
AcDbSymbolTableRecord
100
AcDbBlockTableRecord
  2
block 23
340
0
102
{BLKREFS
331
1B4
102
}
 70
     0
280
     1
281
     0
  0
BLOCK_RECORD
  5
1C6
330
1
100
AcDbSymbolTableRecord
100
AcDbBlockTableRecord
  2
block 24
340
0
102
{BLKREFS
331
1C7
102
}
 70
     0
280
     1
281
     0
  0
BLOCK_RECORD
  5
1D9
330
1
100
AcDbSymbolTableRecord
100
AcDbBlockTableRecord
  2
block 25
340
0
102
{BLKREFS
331
1DA
102
}
 70
     0
280
     1
281
     0
  0
BLOCK_RECORD
  5
1EC
330
1
100
AcDbSymbolTableRecord
100
AcDbBlockTableRecord
  2
block 26
340
0
102
{BLKREFS
331
1ED
102
}
 70
     0
280
     1
281
     0
  0
BLOCK_RECORD
  5
1FF
330
1
100
AcDbSymbolTableRecord
100
AcDbBlockTableRecord
  2
block 27
340
0
102
{BLKREFS
331
200
102
}
 70
     0
280
     1
281
     0
  0
BLOCK_RECORD
  5
212
330
1
100
AcDbSymbolTableRecord
100
AcDbBlockTableRecord
  2
block 28
340
0
102
{BLKREFS
331
213
102
}
 70
     0
280
     1
281
     0
  0
BLOCK_RECORD
  5
225
330
1
100
AcDbSymbolTableRecord
100
AcDbBlockTableRecord
  2
block 29
340
0
102
{BLKREFS
331
226
102
}
 70
     0
280
     1
281
     0
  0
BLOCK_RECORD
  5
238
330
1
100
AcDbSymbolTableRecord
100
AcDbBlockTableRecord
  2
block 30
340
0
102
{BLKREFS
331
239
102
}
 70
     0
280
     1
281
     0
  0
BLOCK_RECORD
  5
24B
330
1
100
AcDbSymbolTableRecord
100
AcDbBlockTableRecord
  2
block 31
340
0
102
{BLKREFS
331
24C
102
}
 70
     0
280
     1
281
     0
  0
BLOCK_RECORD
  5
25E
330
1
100
AcDbSymbolTableRecord
100
AcDbBlockTableRecord
  2
block 32
340
0
102
{BLKREFS
331
25F
102
}
 70
     0
280
     1
281
     0
  0
BLOCK_RECORD
  5
271
330
1
100
AcDbSymbolTableRecord
100
AcDbBlockTableRecord
  2
block 33
340
0
102
{BLKREFS
331
272
102
}
 70
     0
280
     1
281
     0
  0
BLOCK_RECORD
  5
284
330
1
100
AcDbSymbolTableRecord
100
AcDbBlockTableRecord
  2
block 34
340
0
102
{BLKREFS
331
285
102
}
 70
     0
280
     1
281
     0
  0
BLOCK_RECORD
  5
297
330
1
100
AcDbSymbolTableRecord
100
AcDbBlockTableRecord
  2
block 35
340
0
102
{BLKREFS
331
298
102
}
 70
     0
280
     1
281
     0
  0
BLOCK_RECORD
  5
2AA
330
1
100
AcDbSymbolTableRecord
100
AcDbBlockTableRecord
  2
block 36
340
0
102
{BLKREFS
331
2AB
102
}
 70
     0
280
     1
281
     0
  0
BLOCK_RECORD
  5
2BD
330
1
100
AcDbSymbolTableRecord
100
AcDbBlockTableRecord
  2
block 37
340
0
102
{BLKREFS
331
2BE
102
}
 70
     0
280
     1
281
     0
  0
BLOCK_RECORD
  5
2D0
330
1
100
AcDbSymbolTableRecord
100
AcDbBlockTableRecord
  2
block 38
340
0
102
{BLKREFS
331
2D1
102
}
 70
     0
280
     1
281
     0
  0
BLOCK_RECORD
  5
2E3
330
1
100
AcDbSymbolTableRecord
100
AcDbBlockTableRecord
  2
block 39
340
0
102
{BLKREFS
331
2E4
102
}
 70
     0
280
     1
281
     0
  0
BLOCK_RECORD
  5
2F6
330
1
100
AcDbSymbolTableRecord
100
AcDbBlockTableRecord
  2
block 40
340
0
102
{BLKREFS
331
2F7
102
}
 70
     0
280
     1
281
     0
  0
BLOCK_RECORD
  5
309
330
1
100
AcDbSymbolTableRecord
100
AcDbBlockTableRecord
  2
block 41
340
0
102
{BLKREFS
331
30A
102
}
 70
     0
280
     1
281
     0
  0
BLOCK_RECORD
  5
31C
330
1
100
AcDbSymbolTableRecord
100
AcDbBlockTableRecord
  2
block 42
340
0
102
{BLKREFS
331
31D
102
}
 70
     0
280
     1
281
     0
  0
BLOCK_RECORD
  5
32F
330
1
100
AcDbSymbolTableRecord
100
AcDbBlockTableRecord
  2
block 43
340
0
102
{BLKREFS
331
330
102
}
 70
     0
280
     1
281
     0
  0
BLOCK_RECORD
  5
342
330
1
100
AcDbSymbolTableRecord
100
AcDbBlockTableRecord
  2
block 44
340
0
102
{BLKREFS
331
343
102
}
 70
     0
280
     1
281
     0
  0
BLOCK_RECORD
  5
355
330
1
100
AcDbSymbolTableRecord
100
AcDbBlockTableRecord
  2
block 45
340
0
102
{BLKREFS
331
356
102
}
 70
     0
280
     1
281
     0
  0
BLOCK_RECORD
  5
368
330
1
100
AcDbSymbolTableRecord
100
AcDbBlockTableRecord
  2
block 46
340
0
102
{BLKREFS
331
369
102
}
 70
     0
280
     1
281
     0
  0
BLOCK_RECORD
  5
37B
330
1
100
AcDbSymbolTableRecord
100
AcDbBlockTableRecord
  2
block 47
340
0
102
{BLKREFS
331
37C
102
}
 70
     0
280
     1
281
     0
  0
BLOCK_RECORD
  5
38E
330
1
100
AcDbSymbolTableRecord
100
AcDbBlockTableRecord
  2
block 48
340
0
102
{BLKREFS
331
38F
102
}
 70
     0
280
     1
281
     0
  0
BLOCK_RECORD
  5
3A1
330
1
100
AcDbSymbolTableRecord
100
AcDbBlockTableRecord
  2
block 49
340
0
102
{BLKREFS
331
3A2
102
}
 70
     0
280
     1
281
     0
  0
BLOCK_RECORD
  5
3B4
330
1
100
AcDbSymbolTableRecord
100
AcDbBlockTableRecord
  2
block 50
340
0
102
{BLKREFS
331
3B5
102
}
 70
     0
280
     1
281
     0
  0
BLOCK_RECORD
  5
3C7
330
1
100
AcDbSymbolTableRecord
100
AcDbBlockTableRecord
  2
block 51
340
0
102
{BLKREFS
331
3C8
102
}
 70
     0
280
     1
281
     0
  0
BLOCK_RECORD
  5
3DA
330
1
100
AcDbSymbolTableRecord
100
AcDbBlockTableRecord
  2
block 52
340
0
102
{BLKREFS
331
3DB
102
}
 70
     0
280
     1
281
     0
  0
BLOCK_RECORD
  5
3ED
330
1
100
AcDbSymbolTableRecord
100
AcDbBlockTableRecord
  2
block 53
340
0
102
{BLKREFS
331
3EE
102
}
 70
     0
280
     1
281
     0
  0
BLOCK_RECORD
  5
400
330
1
100
AcDbSymbolTableRecord
100
AcDbBlockTableRecord
  2
block 54
340
0
102
{BLKREFS
331
401
102
}
 70
     0
280
     1
281
     0
  0
BLOCK_RECORD
  5
413
330
1
100
AcDbSymbolTableRecord
100
AcDbBlockTableRecord
  2
block 55
340
0
102
{BLKREFS
331
414
102
}
 70
     0
280
     1
281
     0
  0
BLOCK_RECORD
  5
426
330
1
100
AcDbSymbolTableRecord
100
AcDbBlockTableRecord
  2
block 56
340
0
102
{BLKREFS
331
427
102
}
 70
     0
280
     1
281
     0
  0
BLOCK_RECORD
  5
439
330
1
100
AcDbSymbolTableRecord
100
AcDbBlockTableRecord
  2
block 57
340
0
102
{BLKREFS
331
43A
102
}
 70
     0
280
     1
281
     0
  0
BLOCK_RECORD
  5
44C
330
1
100
AcDbSymbolTableRecord
100
AcDbBlockTableRecord
  2
block 58
340
0
102
{BLKREFS
331
44D
102
}
 70
     0
280
     1
281
     0
  0
BLOCK_RECORD
  5
45F
330
1
100
AcDbSymbolTableRecord
100
AcDbBlockTableRecord
  2
block 59
340
0
102
{BLKREFS
331
460
102
}
 70
     0
280
     1
281
     0
  0
BLOCK_RECORD
  5
472
330
1
100
AcDbSymbolTableRecord
100
AcDbBlockTableRecord
  2
block 60
340
0
102
{BLKREFS
331
473
102
}
 70
     0
280
     1
281
     0
  0
BLOCK_RECORD
  5
485
330
1
100
AcDbSymbolTableRecord
100
AcDbBlockTableRecord
  2
block 61
340
0
102
{BLKREFS
331
486
102
}
 70
     0
280
     1
281
     0
  0
BLOCK_RECORD
  5
4A8
330
1
100
AcDbSymbolTableRecord
100
AcDbBlockTableRecord
  2
block 62
340
0
102
{BLKREFS
331
4A9
102
}
 70
     0
280
     1
281
     0
  0
BLOCK_RECORD
  5
4BB
330
1
100
AcDbSymbolTableRecord
100
AcDbBlockTableRecord
  2
block 63
340
0
102
{BLKREFS
331
4BC
102
}
 70
     0
280
     1
281
     0
  0
BLOCK_RECORD
  5
4CE
330
1
100
AcDbSymbolTableRecord
100
AcDbBlockTableRecord
  2
block 64
340
0
102
{BLKREFS
331
4CF
102
}
 70
     0
280
     1
281
     0
  0
BLOCK_RECORD
  5
4E1
330
1
100
AcDbSymbolTableRecord
100
AcDbBlockTableRecord
  2
block 65
340
0
102
{BLKREFS
331
4E2
102
}
 70
     0
280
     1
281
     0
  0
BLOCK_RECORD
  5
4F4
330
1
100
AcDbSymbolTableRecord
100
AcDbBlockTableRecord
  2
block 66
340
0
102
{BLKREFS
331
4F5
102
}
 70
     0
280
     1
281
     0
  0
BLOCK_RECORD
  5
507
330
1
100
AcDbSymbolTableRecord
100
AcDbBlockTableRecord
  2
block 67
340
0
102
{BLKREFS
331
508
102
}
 70
     0
280
     1
281
     0
  0
BLOCK_RECORD
  5
51A
330
1
100
AcDbSymbolTableRecord
100
AcDbBlockTableRecord
  2
block 68
340
0
102
{BLKREFS
331
51B
102
}
 70
     0
280
     1
281
     0
  0
BLOCK_RECORD
  5
52D
330
1
100
AcDbSymbolTableRecord
100
AcDbBlockTableRecord
  2
block 69
340
0
102
{BLKREFS
331
52E
102
}
 70
     0
280
     1
281
     0
  0
BLOCK_RECORD
  5
540
330
1
100
AcDbSymbolTableRecord
100
AcDbBlockTableRecord
  2
block 70
340
0
102
{BLKREFS
331
541
102
}
 70
     0
280
     1
281
     0
  0
BLOCK_RECORD
  5
553
330
1
100
AcDbSymbolTableRecord
100
AcDbBlockTableRecord
  2
block 71
340
0
102
{BLKREFS
331
554
102
}
 70
     0
280
     1
281
     0
  0
BLOCK_RECORD
  5
566
330
1
100
AcDbSymbolTableRecord
100
AcDbBlockTableRecord
  2
block 72
340
0
102
{BLKREFS
331
567
102
}
 70
     0
280
     1
281
     0
  0
BLOCK_RECORD
  5
579
330
1
100
AcDbSymbolTableRecord
100
AcDbBlockTableRecord
  2
block 73
340
0
102
{BLKREFS
331
57A
102
}
 70
     0
280
     1
281
     0
  0
BLOCK_RECORD
  5
58C
330
1
100
AcDbSymbolTableRecord
100
AcDbBlockTableRecord
  2
block 74
340
0
102
{BLKREFS
331
58D
102
}
 70
     0
280
     1
281
     0
  0
BLOCK_RECORD
  5
59F
330
1
100
AcDbSymbolTableRecord
100
AcDbBlockTableRecord
  2
block 75
340
0
102
{BLKREFS
331
5A0
102
}
 70
     0
280
     1
281
     0
  0
BLOCK_RECORD
  5
5AA
330
1
100
AcDbSymbolTableRecord
100
AcDbBlockTableRecord
  2
block 76
340
0
102
{BLKREFS
331
5AB
102
}
 70
     0
280
     1
281
     0
  0
BLOCK_RECORD
  5
5B5
330
1
100
AcDbSymbolTableRecord
100
AcDbBlockTableRecord
  2
block 77
340
0
102
{BLKREFS
331
5B6
102
}
 70
     0
280
     1
281
     0
  0
BLOCK_RECORD
  5
5C0
330
1
100
AcDbSymbolTableRecord
100
AcDbBlockTableRecord
  2
block 78
340
0
102
{BLKREFS
331
5C1
102
}
 70
     0
280
     1
281
     0
  0
BLOCK_RECORD
  5
5D6
330
1
100
AcDbSymbolTableRecord
100
AcDbBlockTableRecord
  2
block 79
340
0
102
{BLKREFS
331
5D7
102
}
 70
     0
280
     1
281
     0
  0
BLOCK_RECORD
  5
5E1
330
1
100
AcDbSymbolTableRecord
100
AcDbBlockTableRecord
  2
block 80
340
0
102
{BLKREFS
331
5E2
102
}
 70
     0
280
     1
281
     0
  0
BLOCK_RECORD
  5
5EC
330
1
100
AcDbSymbolTableRecord
100
AcDbBlockTableRecord
  2
block 81
340
0
102
{BLKREFS
331
5ED
102
}
 70
     0
280
     1
281
     0
  0
BLOCK_RECORD
  5
5F7
330
1
100
AcDbSymbolTableRecord
100
AcDbBlockTableRecord
  2
block 82
340
0
102
{BLKREFS
331
5F8
102
}
 70
     0
280
     1
281
     0
  0
ENDTAB
  0
ENDSEC
  0
SECTION
  2
BLOCKS
  0
BLOCK
  5
20
330
1F
100
AcDbEntity
  8
0
100
AcDbBlockBegin
  2
*Model_Space
 70
     0
 10
0.0
 20
0.0
 30
0.0
  3
*Model_Space
  1

  0
ENDBLK
  5
21
330
1F
100
AcDbEntity
  8
0
100
AcDbBlockEnd
  0
BLOCK
  5
1C
330
1B
100
AcDbEntity
 67
     1
  8
0
100
AcDbBlockBegin
  2
*Paper_Space
 70
     0
 10
0.0
 20
0.0
 30
0.0
  3
*Paper_Space
  1

  0
ENDBLK
  5
1D
330
1B
100
AcDbEntity
 67
     1
  8
0
100
AcDbBlockEnd
  0
BLOCK
  5
24
330
23
100
AcDbEntity
  8
0
100
AcDbBlockBegin
  2
*Paper_Space0
 70
     0
 10
0.0
 20
0.0
 30
0.0
  3
*Paper_Space0
  1

  0
ENDBLK
  5
25
330
23
100
AcDbEntity
  8
0
100
AcDbBlockEnd
  0
BLOCK
  5
42
330
40
100
AcDbEntity
  8
0
100
AcDbBlockBegin
  2
block 2
 70
     0
 10
0.0
 20
0.0
 30
0.0
  3
block 2
  1

  0
SPLINE
  5
44
330
40
100
AcDbEntity
  8
0
 62
     7
420
 16777215
370
     9
100
AcDbSpline
210
0.0
220
0.0
230
1.0
 70
    11
 71
     3
 72
   221
 73
   217
 74
     0
 42
0.0000000001
 43
0.0000000001
 12
1.0
 22
0.0
 32
0.0
 13
1.0
 23
0.0
 33
0.0
 40
0.0
 40
0.0
 40
0.0
 40
0.0
 40
1.0
 40
1.0
 40
1.0
 40
2.0
 40
2.0
 40
2.0
 40
3.0
 40
3.0
 40
3.0
 40
4.0
 40
4.0
 40
4.0
 40
5.0
 40
5.0
 40
5.0
 40
6.0
 40
6.0
 40
6.0
 40
7.0
 40
7.0
 40
7.0
 40
8.0
 40
8.0
 40
8.0
 40
9.0
 40
9.0
 40
9.0
 40
10.0
 40
10.0
 40
10.0
 40
11.0
 40
11.0
 40
11.0
 40
12.0
 40
12.0
 40
12.0
 40
13.0
 40
13.0
 40
13.0
 40
14.0
 40
14.0
 40
14.0
 40
15.0
 40
15.0
 40
15.0
 40
16.0
 40
16.0
 40
16.0
 40
17.0
 40
17.0
 40
17.0
 40
18.0
 40
18.0
 40
18.0
 40
19.0
 40
19.0
 40
19.0
 40
20.0
 40
20.0
 40
20.0
 40
21.0
 40
21.0
 40
21.0
 40
22.0
 40
22.0
 40
22.0
 40
23.0
 40
23.0
 40
23.0
 40
24.0
 40
24.0
 40
24.0
 40
25.0
 40
25.0
 40
25.0
 40
26.0
 40
26.0
 40
26.0
 40
27.0
 40
27.0
 40
27.0
 40
28.0
 40
28.0
 40
28.0
 40
29.0
 40
29.0
 40
29.0
 40
30.0
 40
30.0
 40
30.0
 40
31.0
 40
31.0
 40
31.0
 40
32.0
 40
32.0
 40
32.0
 40
33.0
 40
33.0
 40
33.0
 40
34.0
 40
34.0
 40
34.0
 40
35.0
 40
35.0
 40
35.0
 40
36.0
 40
36.0
 40
36.0
 40
37.0
 40
37.0
 40
37.0
 40
38.0
 40
38.0
 40
38.0
 40
39.0
 40
39.0
 40
39.0
 40
40.0
 40
40.0
 40
40.0
 40
41.0
 40
41.0
 40
41.0
 40
42.0
 40
42.0
 40
42.0
 40
43.0
 40
43.0
 40
43.0
 40
44.0
 40
44.0
 40
44.0
 40
45.0
 40
45.0
 40
45.0
 40
46.0
 40
46.0
 40
46.0
 40
47.0
 40
47.0
 40
47.0
 40
48.0
 40
48.0
 40
48.0
 40
49.0
 40
49.0
 40
49.0
 40
50.0
 40
50.0
 40
50.0
 40
51.0
 40
51.0
 40
51.0
 40
52.0
 40
52.0
 40
52.0
 40
53.0
 40
53.0
 40
53.0
 40
54.0
 40
54.0
 40
54.0
 40
55.0
 40
55.0
 40
55.0
 40
56.0
 40
56.0
 40
56.0
 40
57.0
 40
57.0
 40
57.0
 40
58.0
 40
58.0
 40
58.0
 40
59.0
 40
59.0
 40
59.0
 40
60.0
 40
60.0
 40
60.0
 40
61.0
 40
61.0
 40
61.0
 40
62.0
 40
62.0
 40
62.0
 40
63.0
 40
63.0
 40
63.0
 40
64.0
 40
64.0
 40
64.0
 40
65.0
 40
65.0
 40
65.0
 40
66.0
 40
66.0
 40
66.0
 40
67.0
 40
67.0
 40
67.0
 40
68.0
 40
68.0
 40
68.0
 40
69.0
 40
69.0
 40
69.0
 40
70.0
 40
70.0
 40
70.0
 40
71.0
 40
71.0
 40
71.0
 40
72.0
 40
72.0
 40
72.0
 40
72.0
 10
169.3007596555526
 20
450.5996651308678
 30
0.0
 10
169.3007596555526
 20
450.5996651308678
 30
0.0
 10
162.9007596555512
 20
450.5996651370178
 30
0.0
 10
162.9007596555512
 20
450.5996651370178
 30
0.0
 10
161.3543623560254
 20
450.5996651385021
 30
0.0
 10
160.1007596543459
 20
449.3460624392319
 30
0.0
 10
160.1007596528616
 20
447.7996651397061
 30
0.0
 10
160.1007596528616
 20
447.7996651397061
 30
0.0
 10
160.100759651541
 20
446.424465140647
 30
0.0
 10
160.100759651541
 20
446.424465140647
 30
0.0
 10
160.1007596500549
 20
444.8780678411213
 30
0.0
 10
158.8471569483772
 20
443.6244651418492
 30
0.0
 10
157.3007596488515
 20
443.6244651433362
 30
0.0
 10
157.3007596488515
 20
443.6244651433362
 30
0.0
 10
156.9007595568874
 20
443.6244651437219
 30
0.0
 10
156.9007595568874
 20
443.6244651437219
 30
0.0
 10
155.3543622545458
 20
443.6244651436527
 30
0.0
 10
154.1007595541269
 20
442.370862443121
 30
0.0
 10
154.100759554196
 20
440.8244651435953
 30
0.0
 10
154.100759554196
 20
440.8244651435953
 30
0.0
 10
154.1007595582214
 20
351.1755351435986
 30
0.0
 10
154.1007595582214
 20
351.1755351435986
 30
0.0
 10
154.1007595582923
 20
349.6291378451697
 30
0.0
 10
155.3543622571051
 20
348.3755351452073
 30
0.0
 10
156.9007595555322
 20
348.375535143723
 30
0.0
 10
156.9007595555322
 20
348.375535143723
 30
0.0
 10
157.3007595573436
 20
348.3755351433374
 30
0.0
 10
157.3007595573436
 20
348.3755351433374
 30
0.0
 10
158.8471568568693
 20
348.3755351418531
 30
0.0
 10
160.1007595561387
 20
347.1219324401773
 30
0.0
 10
160.1007595546525
 20
345.5755351406497
 30
0.0
 10
160.1007595546525
 20
345.5755351406497
 30
0.0
 10
160.100759553332
 20
344.2003351415933
 30
0.0
 10
160.100759553332
 20
344.2003351415933
 30
0.0
 10
160.1007595518458
 20
342.6539378420694
 30
0.0
 10
161.3543622511152
 20
341.4003351403899
 30
0.0
 10
162.9007595506409
 20
341.4003351389019
 30
0.0
 10
162.9007595506409
 20
341.4003351389019
 30
0.0
 10
169.3007595506424
 20
341.4003351327538
 30
0.0
 10
169.3007595506424
 20
341.4003351327538
 30
0.0
 10
170.8471568501664
 20
341.4003351312695
 30
0.0
 10
172.1007595518458
 20
342.6539378305406
 30
0.0
 10
172.100759553332
 20
344.2003351300646
 30
0.0
 10
172.100759553332
 20
344.2003351300646
 30
0.0
 10
172.1007595546525
 20
345.5755351291209
 30
0.0
 10
172.1007595546525
 20
345.5755351291209
 30
0.0
 10
172.1007595561368
 20
347.1219324286449
 30
0.0
 10
173.3543622578163
 20
348.375535127916
 30
0.0
 10
174.9007595573421
 20
348.3755351264317
 30
0.0
 10
174.9007595573421
 20
348.3755351264317
 30
0.0
 10
247.3007595573436
 20
348.3755350568736
 30
0.0
 10
247.3007595573436
 20
348.3755350568736
 30
0.0
 10
248.8471568568675
 20
348.3755350553893
 30
0.0
 10
250.1007595561387
 20
347.1219323537098
 30
0.0
 10
250.1007595546525
 20
345.5755350541822
 30
0.0
 10
250.1007595546525
 20
345.5755350541822
 30
0.0
 10
250.100759553332
 20
344.2003350551295
 30
0.0
 10
250.100759553332
 20
344.2003350551295
 30
0.0
 10
250.1007595518458
 20
342.6539377556019
 30
0.0
 10
251.3543622511152
 20
341.400335053926
 30
0.0
 10
252.9007595506409
 20
341.4003350524417
 30
0.0
 10
252.9007595506409
 20
341.4003350524417
 30
0.0
 10
259.3007595506406
 20
341.4003350462935
 30
0.0
 10
259.3007595506406
 20
341.4003350462935
 30
0.0
 10
260.8471568501664
 20
341.400335044802
 30
0.0
 10
262.1007595518458
 20
342.6539377440731
 30
0.0
 10
262.100759553332
 20
344.2003350436007
 30
0.0
 10
262.100759553332
 20
344.2003350436007
 30
0.0
 10
262.1007595546525
 20
345.5755350426534
 30
0.0
 10
262.1007595546525
 20
345.5755350426534
 30
0.0
 10
262.1007595561368
 20
347.121932342181
 30
0.0
 10
263.3543622578145
 20
348.3755350414522
 30
0.0
 10
264.9007595573421
 20
348.3755350399642
 30
0.0
 10
264.9007595573421
 20
348.3755350399642
 30
0.0
 10
348.1006749573426
 20
348.3755349600342
 30
0.0
 10
348.1006749573426
 20
348.3755349600342
 30
0.0
 10
349.6470722568702
 20
348.3755349585463
 30
0.0
 10
350.9006749561413
 20
347.1219322568704
 30
0.0
 10
350.9006749546552
 20
345.5755349573428
 30
0.0
 10
350.9006749546552
 20
345.5755349573428
 30
0.0
 10
350.9006749533346
 20
344.2003349582865
 30
0.0
 10
350.9006749533346
 20
344.2003349582865
 30
0.0
 10
350.9006749518485
 20
342.6539376587625
 30
0.0
 10
352.1542776511178
 20
341.400334957083
 30
0.0
 10
353.7006749506436
 20
341.4003349555987
 30
0.0
 10
353.7006749506436
 20
341.4003349555987
 30
0.0
 10
360.1006749506414
 20
341.4003349494506
 30
0.0
 10
360.1006749506414
 20
341.4003349494506
 30
0.0
 10
361.6470722501672
 20
341.4003349479626
 30
0.0
 10
362.9006749518448
 20
342.6539376472338
 30
0.0
 10
362.900674953331
 20
344.2003349467577
 30
0.0
 10
362.900674953331
 20
344.2003349467577
 30
0.0
 10
362.9006749546534
 20
345.5755349458141
 30
0.0
 10
362.9006749546534
 20
345.5755349458141
 30
0.0
 10
362.9006749561377
 20
347.121932245338
 30
0.0
 10
364.1542776578135
 20
348.3755349446092
 30
0.0
 10
365.7006749573393
 20
348.3755349431212
 30
0.0
 10
365.7006749573411
 20
348.3755349431212
 30
0.0
 10
438.1006699733061
 20
348.3755348735667
 30
0.0
 10
438.1006699733061
 20
348.3755348735667
 30
0.0
 10
439.6470655564426
 20
348.3755348720824
 30
0.0
 10
440.9006675447599
 20
347.1219348491013
 30
0.0
 10
440.9006699706151
 20
345.5755392659685
 30
0.0
 10
440.9006699706151
 20
345.5755392659685
 30
0.0
 10
440.9006721279238
 20
344.2003304767295
 30
0.0
 10
440.9006721279238
 20
344.2003304767295
 30
0.0
 10
440.9006745537772
 20
342.6539348935967
 30
0.0
 10
442.1542765420945
 20
341.4003348706156
 30
0.0
 10
443.700672125231
 20
341.4003348691313
 30
0.0
 10
443.700672125231
 20
341.4003348691313
 30
0.0
 10
450.1006749506432
 20
341.4003348629831
 30
0.0
 10
450.1006749506432
 20
341.4003348629831
 30
0.0
 10
451.647072250169
 20
341.4003348614988
 30
0.0
 10
452.9006749518485
 20
342.6539375607663
 30
0.0
 10
452.9006749533328
 20
344.2003348602939
 30
0.0
 10
452.9006749533328
 20
344.2003348602939
 30
0.0
 10
452.9006749546552
 20
345.5755348593466
 30
0.0
 10
452.9006749546552
 20
345.5755348593466
 30
0.0
 10
452.9006749561413
 20
347.1219321588742
 30
0.0
 10
454.1542776578171
 20
348.3755348581453
 30
0.0
 10
455.7006749573429
 20
348.3755348566574
 30
0.0
 10
455.7006749573429
 20
348.3755348566574
 30
0.0
 10
456.0992403573418
 20
348.3755348562754
 30
0.0
 10
456.0992403573418
 20
348.3755348562754
 30
0.0
 10
457.6456376568694
 20
348.3755348547911
 30
0.0
 10
458.8992403585489
 20
349.6291375540586
 30
0.0
 10
458.899240360035
 20
351.1755348535826
 30
0.0
 10
458.899240360035
 20
351.1755348535826
 30
0.0
 10
458.8992404461624
 20
440.8244648535829
 30
0.0
 10
458.8992404461624
 20
440.8244648535829
 30
0.0
 10
458.8992404476485
 20
442.3708621531086
 30
0.0
 10
457.6456377483773
 20
443.6244648547854
 30
0.0
 10
456.0992404488516
 20
443.6244648562715
 30
0.0
 10
456.0992404488516
 20
443.6244648562715
 30
0.0
 10
455.7006750488508
 20
443.6244648566535
 30
0.0
 10
455.7006750488508
 20
443.6244648566535
 30
0.0
 10
454.154277749325
 20
443.6244648581396
 30
0.0
 10
452.9006750500575
 20
444.8780675598191
 30
0.0
 10
452.9006750515437
 20
446.4244648593458
 30
0.0
 10
452.9006750515437
 20
446.4244648593458
 30
0.0
 10
452.9006750528642
 20
447.799664858404
 30
0.0
 10
452.9006750528642
 20
447.799664858404
 30
0.0
 10
452.9006750543485
 20
449.3460621579297
 30
0.0
 10
451.647072355081
 20
450.5996648596074
 30
0.0
 10
450.1006750555534
 20
450.5996648610926
 30
0.0
 10
450.1006750555534
 20
450.5996648610926
 30
0.0
 10
443.7006700715247
 20
450.5996648672426
 30
0.0
 10
443.7006700715247
 20
450.5996648672426
 30
0.0
 10
442.1542683769076
 20
450.5996624413856
 30
0.0
 10
440.9006676429817
 20
449.3460577743681
 30
0.0
 10
440.9006700688369
 20
447.7996604748441
 30
0.0
 10
440.9006700688369
 20
447.7996604748441
 30
0.0
 10
440.9006722261183
 20
446.4244692659722
 30
0.0
 10
440.9006722261183
 20
446.4244692659722
 30
0.0
 10
440.9006746519772
 20
444.8780719664483
 30
0.0
 10
439.6470739180477
 20
443.6244672994308
 30
0.0
 10
438.1006766185237
 20
443.6244648735756
 30
0.0
 10
438.1006722234324
 20
443.6244648735719
 30
0.0
 10
365.700675048849
 20
443.6244649431283
 30
0.0
 10
365.700675048849
 20
443.6244649431283
 30
0.0
 10
364.1542777493232
 20
443.6244649446126
 30
0.0
 10
362.9006750500557
 20
444.8780676462902
 30
0.0
 10
362.90067505154
 20
446.424464945816
 30
0.0
 10
362.90067505154
 20
446.424464945816
 30
0.0
 10
362.9006750528606
 20
447.7996649448705
 30
0.0
 10
362.9006750528606
 20
447.7996649448705
 30
0.0
 10
362.9006750543449
 20
449.3460622443963
 30
0.0
 10
361.6470723550774
 20
450.5996649460758
 30
0.0
 10
360.1006750555534
 20
450.5996649475601
 30
0.0
 10
360.1006750555534
 20
450.5996649475619
 30
0.0
 10
353.700675055552
 20
450.5996649537101
 30
0.0
 10
353.700675055552
 20
450.5996649537101
 30
0.0
 10
352.1542777560244
 20
450.5996649551962
 30
0.0
 10
350.9006750543485
 20
449.3460622559251
 30
0.0
 10
350.9006750528606
 20
447.7996649563993
 30
0.0
 10
350.9006750528606
 20
447.7996649563993
 30
0.0
 10
350.90067505154
 20
446.4244649573411
 30
0.0
 10
350.90067505154
 20
446.4244649573411
 30
0.0
 10
350.9006750500575
 20
444.8780676578135
 30
0.0
 10
349.6470723483781
 20
443.6244649585442
 30
0.0
 10
348.1006750488505
 20
443.6244649600303
 30
0.0
 10
348.1006750488505
 20
443.6244649600303
 30
0.0
 10
264.90075964885
 20
443.624465039964
 30
0.0
 10
264.90075964885
 20
443.624465039964
 30
0.0
 10
263.3543623493242
 20
443.6244650414483
 30
0.0
 10
262.1007596500549
 20
444.8780677431259
 30
0.0
 10
262.100759651541
 20
446.4244650426517
 30
0.0
 10
262.100759651541
 20
446.4244650426517
 30
0.0
 10
262.1007596528616
 20
447.7996650417117
 30
0.0
 10
262.1007596528616
 20
447.7996650417117
 30
0.0
 10
262.1007596543459
 20
449.3460623412393
 30
0.0
 10
260.8471569550766
 20
450.5996650429188
 30
0.0
 10
259.3007596555508
 20
450.5996650444031
 30
0.0
 10
259.3007596555508
 20
450.5996650444031
 30
0.0
 10
252.9007596555512
 20
450.5996650505513
 30
0.0
 10
252.9007596555512
 20
450.5996650505513
 30
0.0
 10
251.3543623560254
 20
450.5996650520374
 30
0.0
 10
250.1007596543459
 20
449.3460623527681
 30
0.0
 10
250.1007596528616
 20
447.7996650532405
 30
0.0
 10
250.1007596528616
 20
447.7996650532405
 30
0.0
 10
250.100759651541
 20
446.4244650541805
 30
0.0
 10
250.100759651541
 20
446.4244650541805
 30
0.0
 10
250.1007596500549
 20
444.8780677546547
 30
0.0
 10
248.8471569483772
 20
443.6244650553854
 30
0.0
 10
247.3007596488515
 20
443.6244650568724
 30
0.0
 10
247.3007596488515
 20
443.6244650568724
 30
0.0
 10
174.90075964885
 20
443.6244651264287
 30
0.0
 10
174.90075964885
 20
443.6244651264287
 30
0.0
 10
173.354362349326
 20
443.6244651279148
 30
0.0
 10
172.1007596500549
 20
444.8780678295916
 30
0.0
 10
172.100759651541
 20
446.4244651291183
 30
0.0
 10
172.100759651541
 20
446.4244651291183
 30
0.0
 10
172.1007596528616
 20
447.7996651281801
 30
0.0
 10
172.1007596528616
 20
447.7996651281801
 30
0.0
 10
172.1007596543459
 20
449.3460624277059
 30
0.0
 10
170.8471569550766
 20
450.5996651293835
 30
0.0
 10
169.3007596555526
 20
450.5996651308678
 30
0.0
  0
ENDBLK
  5
43
330
40
100
AcDbEntity
  8
0
100
AcDbBlockEnd
  0
BLOCK
  5
47
330
45
100
AcDbEntity
  8
0
100
AcDbBlockBegin
  2
block 3
 70
     0
 10
0.0
 20
0.0
 30
0.0
  3
block 3
  1

  0
SPLINE
  5
49
330
45
100
AcDbEntity
  8
0
 62
     7
420
 16777215
370
     9
100
AcDbSpline
210
0.0
220
0.0
230
1.0
 70
    11
 71
     3
 72
    29
 73
    25
 74
     0
 42
0.0000000001
 43
0.0000000001
 12
1.0
 22
0.0
 32
0.0
 13
1.0
 23
0.0
 33
0.0
 40
0.0
 40
0.0
 40
0.0
 40
0.0
 40
1.0
 40
1.0
 40
1.0
 40
2.0
 40
2.0
 40
2.0
 40
3.0
 40
3.0
 40
3.0
 40
4.0
 40
4.0
 40
4.0
 40
5.0
 40
5.0
 40
5.0
 40
6.0
 40
6.0
 40
6.0
 40
7.0
 40
7.0
 40
7.0
 40
8.0
 40
8.0
 40
8.0
 40
8.0
 10
236.3245555307039
 20
366.9067280995132
 30
0.0
 10
236.0484131557878
 20
366.9067280997788
 30
0.0
 10
235.8245555304875
 20
366.6828704749078
 30
0.0
 10
235.8245555302219
 20
366.4067280999934
 30
0.0
 10
235.8245555302219
 20
366.4067280999934
 30
0.0
 10
235.8245555167741
 20
352.4067280999934
 30
0.0
 10
235.8245555167741
 20
352.4067280999934
 30
0.0
 10
235.8245555165067
 20
352.1305857250791
 30
0.0
 10
236.0484131413759
 20
351.9067280997824
 30
0.0
 10
236.3245555162921
 20
351.9067280995132
 30
0.0
 10
236.3245555162921
 20
351.9067280995132
 30
0.0
 10
243.3245555162921
 20
351.9067280927902
 30
0.0
 10
243.3245555162921
 20
351.9067280927902
 30
0.0
 10
243.6006978912064
 20
351.9067280925246
 30
0.0
 10
243.8245555165067
 20
352.1305857173957
 30
0.0
 10
243.8245555167741
 20
352.40672809231
 30
0.0
 10
243.8245555167741
 20
352.4067280923136
 30
0.0
 10
243.8245555302219
 20
366.4067280923136
 30
0.0
 10
243.8245555302219
 20
366.4067280923136
 30
0.0
 10
243.8245555304875
 20
366.682870467228
 30
0.0
 10
243.6006979056183
 20
366.9067280925246
 30
0.0
 10
243.3245555307039
 20
366.9067280927902
 30
0.0
 10
243.3245555307039
 20
366.9067280927902
 30
0.0
 10
236.3245555307039
 20
366.9067280995132
 30
0.0
 10
236.3245555307039
 20
366.9067280995132
 30
0.0
  0
ENDBLK
  5
48
330
45
100
AcDbEntity
  8
0
100
AcDbBlockEnd
  0
BLOCK
  5
4C
330
4A
100
AcDbEntity
  8
0
100
AcDbBlockBegin
  2
block 4
 70
     0
 10
0.0
 20
0.0
 30
0.0
  3
block 4
  1

  0
POLYLINE
  5
4E
330
4A
100
AcDbEntity
  8
0
 62
     7
420
 16777215
370
     9
100
AcDb2dPolyline
 66
     1
 10
0.0
 20
0.0
 30
0.0
  0
VERTEX
  5
4F
330
4E
100
AcDbEntity
  8
0
 62
     7
420
 16777215
370
     9
100
AcDbVertex
100
AcDb2dVertex
 10
358.1245555167388
 20
352.3710591348809
 30
0.0
  0
VERTEX
  5
50
330
4E
100
AcDbEntity
  8
0
 62
     7
420
 16777215
370
     9
100
AcDbVertex
100
AcDb2dVertex
 10
358.0091542715872
 20
352.051533446609
 30
0.0
  0
VERTEX
  5
51
330
4E
100
AcDbEntity
  8
0
 62
     7
420
 16777215
370
     9
100
AcDbVertex
100
AcDb2dVertex
 10
357.624395331186
 20
351.8710591353574
 30
0.0
  0
VERTEX
  5
52
330
4E
100
AcDbEntity
  8
0
 62
     7
420
 16777215
370
     9
100
AcDbVertex
100
AcDb2dVertex
 10
350.6245555162932
 20
351.9067279897008
 30
0.0
  0
VERTEX
  5
53
330
4E
100
AcDbEntity
  8
0
 62
     7
420
 16777215
370
     9
100
AcDbVertex
100
AcDb2dVertex
 10
350.3050298280214
 20
352.0221292348488
 30
0.0
  0
VERTEX
  5
54
330
4E
100
AcDbEntity
  8
0
 62
     7
420
 16777215
370
     9
100
AcDbVertex
100
AcDb2dVertex
 10
350.1245555167698
 20
352.406727990181
 30
0.0
  0
VERTEX
  5
55
330
4E
100
AcDbEntity
  8
0
 62
     7
420
 16777215
370
     9
100
AcDbVertex
100
AcDb2dVertex
 10
350.124555530223
 20
366.406727990181
 30
0.0
  0
VERTEX
  5
56
330
4E
100
AcDbEntity
  8
0
 62
     7
420
 16777215
370
     9
100
AcDbVertex
100
AcDb2dVertex
 10
350.2399567753728
 20
366.7262536784528
 30
0.0
  0
VERTEX
  5
57
330
4E
100
AcDbEntity
  8
0
 62
     7
420
 16777215
370
     9
100
AcDbVertex
100
AcDb2dVertex
 10
350.6244258632105
 20
366.9067279897045
 30
0.0
  0
VERTEX
  5
58
330
4E
100
AcDbEntity
  8
0
 62
     7
420
 16777215
370
     9
100
AcDbVertex
100
AcDb2dVertex
 10
357.6245555307032
 20
366.9067279829742
 30
0.0
  0
VERTEX
  5
59
330
4E
100
AcDbEntity
  8
0
 62
     7
420
 16777215
370
     9
100
AcDbVertex
100
AcDb2dVertex
 10
357.9440812189732
 20
366.7913267378262
 30
0.0
  0
VERTEX
  5
5A
330
4E
100
AcDbEntity
  8
0
 62
     7
420
 16777215
370
     9
100
AcDbVertex
100
AcDb2dVertex
 10
358.124555530223
 20
366.4067279824976
 30
0.0
  0
VERTEX
  5
5B
330
4E
100
AcDbEntity
  8
0
 62
     7
420
 16777215
370
     9
100
AcDbVertex
100
AcDb2dVertex
 10
358.1245555167388
 20
352.3710591348809
 30
0.0
  0
SEQEND
  5
5C
330
4E
100
AcDbEntity
  8
0
 62
     7
420
 16777215
370
     9
  0
ENDBLK
  5
4D
330
4A
100
AcDbEntity
  8
0
100
AcDbBlockEnd
  0
BLOCK
  5
5F
330
5D
100
AcDbEntity
  8
0
100
AcDbBlockBegin
  2
block 5
 70
     0
 10
0.0
 20
0.0
 30
0.0
  3
block 5
  1

  0
POLYLINE
  5
61
330
5D
100
AcDbEntity
  8
0
 62
     7
420
 16777215
370
     9
100
AcDb2dPolyline
 66
     1
 10
0.0
 20
0.0
 30
0.0
  0
VERTEX
  5
62
330
61
100
AcDbEntity
  8
0
 62
     7
420
 16777215
370
     9
100
AcDbVertex
100
AcDb2dVertex
 10
303.9745555158133
 20
351.40650580076
 30
0.0
  0
VERTEX
  5
63
330
61
100
AcDbEntity
  8
0
 62
     7
420
 16777215
370
     9
100
AcDbVertex
100
AcDb2dVertex
 10
303.8591542706617
 20
351.0869801124918
 30
0.0
  0
VERTEX
  5
64
330
61
100
AcDbEntity
  8
0
 62
     7
420
 16777215
370
     9
100
AcDbVertex
100
AcDb2dVertex
 10
303.4745292261341
 20
350.9065058012366
 30
0.0
  0
VERTEX
  5
65
330
61
100
AcDbEntity
  8
0
 62
     7
420
 16777215
370
     9
100
AcDbVertex
100
AcDb2dVertex
 10
290.4745555153331
 20
350.9065058137294
 30
0.0
  0
VERTEX
  5
66
330
61
100
AcDbEntity
  8
0
 62
     7
420
 16777215
370
     9
100
AcDbVertex
100
AcDb2dVertex
 10
290.1550298270631
 20
351.021907058881
 30
0.0
  0
VERTEX
  5
67
330
61
100
AcDbEntity
  8
0
 62
     7
420
 16777215
370
     9
100
AcDbVertex
100
AcDb2dVertex
 10
289.9745540221465
 20
351.4065058142132
 30
0.0
  0
VERTEX
  5
68
330
61
100
AcDbEntity
  8
0
 62
     7
420
 16777215
370
     9
100
AcDbVertex
100
AcDb2dVertex
 10
289.9745555283007
 20
364.4065058142096
 30
0.0
  0
VERTEX
  5
69
330
61
100
AcDbEntity
  8
0
 62
     7
420
 16777215
370
     9
100
AcDbVertex
100
AcDb2dVertex
 10
290.0899567734523
 20
364.7260315024778
 30
0.0
  0
VERTEX
  5
6A
330
61
100
AcDbEntity
  8
0
 62
     7
420
 16777215
370
     9
100
AcDbVertex
100
AcDb2dVertex
 10
290.4745177954901
 20
364.9065058137294
 30
0.0
  0
VERTEX
  5
6B
330
61
100
AcDbEntity
  8
0
 62
     7
420
 16777215
370
     9
100
AcDbVertex
100
AcDb2dVertex
 10
303.4745555287809
 20
364.9065058012366
 30
0.0
  0
VERTEX
  5
6C
330
61
100
AcDbEntity
  8
0
 62
     7
420
 16777215
370
     9
100
AcDbVertex
100
AcDb2dVertex
 10
303.7940812170509
 20
364.7911045560886
 30
0.0
  0
VERTEX
  5
6D
330
61
100
AcDbEntity
  8
0
 62
     7
420
 16777215
370
     9
100
AcDbVertex
100
AcDb2dVertex
 10
303.9745555283007
 20
364.40650580076
 30
0.0
  0
VERTEX
  5
6E
330
61
100
AcDbEntity
  8
0
 62
     7
420
 16777215
370
     9
100
AcDbVertex
100
AcDb2dVertex
 10
303.9745555158133
 20
351.40650580076
 30
0.0
  0
SEQEND
  5
6F
330
61
100
AcDbEntity
  8
0
 62
     7
420
 16777215
370
     9
  0
ENDBLK
  5
60
330
5D
100
AcDbEntity
  8
0
100
AcDbBlockEnd
  0
BLOCK
  5
72
330
70
100
AcDbEntity
  8
0
100
AcDbBlockBegin
  2
block 6
 70
     0
 10
0.0
 20
0.0
 30
0.0
  3
block 6
  1

  0
POLYLINE
  5
74
330
70
100
AcDbEntity
  8
0
 62
     7
420
 16777215
370
     9
100
AcDb2dPolyline
 66
     1
 10
0.0
 20
0.0
 30
0.0
  0
VERTEX
  5
75
330
74
100
AcDbEntity
  8
0
 62
     7
420
 16777215
370
     9
100
AcDbVertex
100
AcDb2dVertex
 10
456.3745555158112
 20
351.4065056543386
 30
0.0
  0
VERTEX
  5
76
330
74
100
AcDbEntity
  8
0
 62
     7
420
 16777215
370
     9
100
AcDbVertex
100
AcDb2dVertex
 10
456.2591542706614
 20
351.0869799660777
 30
0.0
  0
VERTEX
  5
77
330
74
100
AcDbEntity
  8
0
 62
     7
420
 16777215
370
     9
100
AcDbVertex
100
AcDb2dVertex
 10
455.8745460108003
 20
350.9065056548261
 30
0.0
  0
VERTEX
  5
78
330
74
100
AcDbEntity
  8
0
 62
     7
420
 16777215
370
     9
100
AcDbVertex
100
AcDb2dVertex
 10
442.8745555153291
 20
350.9065056673189
 30
0.0
  0
VERTEX
  5
79
330
74
100
AcDbEntity
  8
0
 62
     7
420
 16777215
370
     9
100
AcDbVertex
100
AcDb2dVertex
 10
442.5550298270609
 20
351.0219069124632
 30
0.0
  0
VERTEX
  5
7A
330
74
100
AcDbEntity
  8
0
 62
     7
420
 16777215
370
     9
100
AcDbVertex
100
AcDb2dVertex
 10
442.3745555158112
 20
351.4065056677919
 30
0.0
  0
VERTEX
  5
7B
330
74
100
AcDbEntity
  8
0
 62
     7
420
 16777215
370
     9
100
AcDbVertex
100
AcDb2dVertex
 10
442.3745555283003
 20
364.4065056677955
 30
0.0
  0
VERTEX
  5
7C
330
74
100
AcDbEntity
  8
0
 62
     7
420
 16777215
370
     9
100
AcDbVertex
100
AcDb2dVertex
 10
442.4899567734519
 20
364.7260313560673
 30
0.0
  0
VERTEX
  5
7D
330
74
100
AcDbEntity
  8
0
 62
     7
420
 16777215
370
     9
100
AcDbVertex
100
AcDb2dVertex
 10
442.8745345801581
 20
364.9065056673116
 30
0.0
  0
VERTEX
  5
7E
330
74
100
AcDbEntity
  8
0
 62
     7
420
 16777215
370
     9
100
AcDbVertex
100
AcDb2dVertex
 10
455.8745555287824
 20
364.9065056548261
 30
0.0
  0
VERTEX
  5
7F
330
74
100
AcDbEntity
  8
0
 62
     7
420
 16777215
370
     9
100
AcDbVertex
100
AcDb2dVertex
 10
456.1940812170506
 20
364.7911044096745
 30
0.0
  0
VERTEX
  5
80
330
74
100
AcDbEntity
  8
0
 62
     7
420
 16777215
370
     9
100
AcDbVertex
100
AcDb2dVertex
 10
456.3745555283022
 20
364.4065056543423
 30
0.0
  0
VERTEX
  5
81
330
74
100
AcDbEntity
  8
0
 62
     7
420
 16777215
370
     9
100
AcDbVertex
100
AcDb2dVertex
 10
456.3745555158112
 20
351.4065056543386
 30
0.0
  0
SEQEND
  5
82
330
74
100
AcDbEntity
  8
0
 62
     7
420
 16777215
370
     9
  0
ENDBLK
  5
73
330
70
100
AcDbEntity
  8
0
100
AcDbBlockEnd
  0
BLOCK
  5
85
330
83
100
AcDbEntity
  8
0
100
AcDbBlockBegin
  2
block 7
 70
     0
 10
0.0
 20
0.0
 30
0.0
  3
block 7
  1

  0
POLYLINE
  5
87
330
83
100
AcDbEntity
  8
0
 62
     7
420
 16777215
370
     9
100
AcDb2dPolyline
 66
     1
 10
0.0
 20
0.0
 30
0.0
  0
VERTEX
  5
88
330
87
100
AcDbEntity
  8
0
 62
     7
420
 16777215
370
     9
100
AcDbVertex
100
AcDb2dVertex
 10
437.3245555158101
 20
351.4065056726486
 30
0.0
  0
VERTEX
  5
89
330
87
100
AcDbEntity
  8
0
 62
     7
420
 16777215
370
     9
100
AcDbVertex
100
AcDb2dVertex
 10
437.2091542706603
 20
351.0869799843731
 30
0.0
  0
VERTEX
  5
8A
330
87
100
AcDbEntity
  8
0
 62
     7
420
 16777215
370
     9
100
AcDbVertex
100
AcDb2dVertex
 10
436.8244247034272
 20
350.9065056731288
 30
0.0
  0
VERTEX
  5
8B
330
87
100
AcDbEntity
  8
0
 62
     7
420
 16777215
370
     9
100
AcDbVertex
100
AcDb2dVertex
 10
423.8245555153298
 20
350.9065056856143
 30
0.0
  0
VERTEX
  5
8C
330
87
100
AcDbEntity
  8
0
 62
     7
420
 16777215
370
     9
100
AcDbVertex
100
AcDb2dVertex
 10
423.5050298270617
 20
351.0219069307659
 30
0.0
  0
VERTEX
  5
8D
330
87
100
AcDbEntity
  8
0
 62
     7
420
 16777215
370
     9
100
AcDbVertex
100
AcDb2dVertex
 10
423.3245555158101
 20
351.4065056860945
 30
0.0
  0
VERTEX
  5
8E
330
87
100
AcDbEntity
  8
0
 62
     7
420
 16777215
370
     9
100
AcDbVertex
100
AcDb2dVertex
 10
423.3245555282992
 20
364.4065056860982
 30
0.0
  0
VERTEX
  5
8F
330
87
100
AcDbEntity
  8
0
 62
     7
420
 16777215
370
     9
100
AcDbVertex
100
AcDb2dVertex
 10
423.4399567734508
 20
364.7260313743664
 30
0.0
  0
VERTEX
  5
90
330
87
100
AcDbEntity
  8
0
 62
     7
420
 16777215
370
     9
100
AcDbVertex
100
AcDb2dVertex
 10
423.824413272785
 20
364.9065056856143
 30
0.0
  0
VERTEX
  5
91
330
87
100
AcDbEntity
  8
0
 62
     7
420
 16777215
370
     9
100
AcDbVertex
100
AcDb2dVertex
 10
436.8245555287795
 20
364.9065056731215
 30
0.0
  0
VERTEX
  5
92
330
87
100
AcDbEntity
  8
0
 62
     7
420
 16777215
370
     9
100
AcDbVertex
100
AcDb2dVertex
 10
437.1440812170513
 20
364.7911044279772
 30
0.0
  0
VERTEX
  5
93
330
87
100
AcDbEntity
  8
0
 62
     7
420
 16777215
370
     9
100
AcDbVertex
100
AcDb2dVertex
 10
437.3245555282992
 20
364.4065056726486
 30
0.0
  0
VERTEX
  5
94
330
87
100
AcDbEntity
  8
0
 62
     7
420
 16777215
370
     9
100
AcDbVertex
100
AcDb2dVertex
 10
437.3245555158101
 20
351.4065056726486
 30
0.0
  0
SEQEND
  5
95
330
87
100
AcDbEntity
  8
0
 62
     7
420
 16777215
370
     9
  0
ENDBLK
  5
86
330
83
100
AcDbEntity
  8
0
100
AcDbBlockEnd
  0
BLOCK
  5
98
330
96
100
AcDbEntity
  8
0
100
AcDbBlockBegin
  2
block 8
 70
     0
 10
0.0
 20
0.0
 30
0.0
  3
block 8
  1

  0
POLYLINE
  5
9A
330
96
100
AcDbEntity
  8
0
 62
     7
420
 16777215
370
     9
100
AcDb2dPolyline
 66
     1
 10
0.0
 20
0.0
 30
0.0
  0
VERTEX
  5
9B
330
9A
100
AcDbEntity
  8
0
 62
     7
420
 16777215
370
     9
100
AcDbVertex
100
AcDb2dVertex
 10
418.2745555158108
 20
351.4065056909476
 30
0.0
  0
VERTEX
  5
9C
330
9A
100
AcDbEntity
  8
0
 62
     7
420
 16777215
370
     9
100
AcDbVertex
100
AcDb2dVertex
 10
418.159154270661
 20
351.0869800026758
 30
0.0
  0
VERTEX
  5
9D
330
9A
100
AcDbEntity
  8
0
 62
     7
420
 16777215
370
     9
100
AcDbVertex
100
AcDb2dVertex
 10
417.7745418146333
 20
350.9065056914314
 30
0.0
  0
VERTEX
  5
9E
330
9A
100
AcDbEntity
  8
0
 62
     7
420
 16777215
370
     9
100
AcDbVertex
100
AcDb2dVertex
 10
404.7745555153306
 20
350.906505703917
 30
0.0
  0
VERTEX
  5
9F
330
9A
100
AcDbEntity
  8
0
 62
     7
420
 16777215
370
     9
100
AcDbVertex
100
AcDb2dVertex
 10
404.4550298270624
 20
351.0219069490686
 30
0.0
  0
VERTEX
  5
A0
330
9A
100
AcDbEntity
  8
0
 62
     7
420
 16777215
370
     9
100
AcDbVertex
100
AcDb2dVertex
 10
404.2745555158126
 20
351.4065057043972
 30
0.0
  0
VERTEX
  5
A1
330
9A
100
AcDbEntity
  8
0
 62
     7
420
 16777215
370
     9
100
AcDbVertex
100
AcDb2dVertex
 10
404.2745555283018
 20
364.4065057044008
 30
0.0
  0
VERTEX
  5
A2
330
9A
100
AcDbEntity
  8
0
 62
     7
420
 16777215
370
     9
100
AcDbVertex
100
AcDb2dVertex
 10
404.3899567734516
 20
364.7260313926654
 30
0.0
  0
VERTEX
  5
A3
330
9A
100
AcDbEntity
  8
0
 62
     7
420
 16777215
370
     9
100
AcDbVertex
100
AcDb2dVertex
 10
404.7745303839911
 20
364.906505703917
 30
0.0
  0
VERTEX
  5
A4
330
9A
100
AcDbEntity
  8
0
 62
     7
420
 16777215
370
     9
100
AcDbVertex
100
AcDb2dVertex
 10
417.7745555287802
 20
364.9065056914242
 30
0.0
  0
VERTEX
  5
A5
330
9A
100
AcDbEntity
  8
0
 62
     7
420
 16777215
370
     9
100
AcDbVertex
100
AcDb2dVertex
 10
418.094081217052
 20
364.7911044462799
 30
0.0
  0
VERTEX
  5
A6
330
9A
100
AcDbEntity
  8
0
 62
     7
420
 16777215
370
     9
100
AcDbVertex
100
AcDb2dVertex
 10
418.2745555283018
 20
364.4065056909512
 30
0.0
  0
VERTEX
  5
A7
330
9A
100
AcDbEntity
  8
0
 62
     7
420
 16777215
370
     9
100
AcDbVertex
100
AcDb2dVertex
 10
418.2745555158108
 20
351.4065056909476
 30
0.0
  0
SEQEND
  5
A8
330
9A
100
AcDbEntity
  8
0
 62
     7
420
 16777215
370
     9
  0
ENDBLK
  5
99
330
96
100
AcDbEntity
  8
0
100
AcDbBlockEnd
  0
BLOCK
  5
AB
330
A9
100
AcDbEntity
  8
0
100
AcDbBlockBegin
  2
block 9
 70
     0
 10
0.0
 20
0.0
 30
0.0
  3
block 9
  1

  0
POLYLINE
  5
AD
330
A9
100
AcDbEntity
  8
0
 62
     7
420
 16777215
370
     9
100
AcDb2dPolyline
 66
     1
 10
0.0
 20
0.0
 30
0.0
  0
VERTEX
  5
AE
330
AD
100
AcDbEntity
  8
0
 62
     7
420
 16777215
370
     9
100
AcDbVertex
100
AcDb2dVertex
 10
384.9370555158112
 20
351.4065057229764
 30
0.0
  0
VERTEX
  5
AF
330
AD
100
AcDbEntity
  8
0
 62
     7
420
 16777215
370
     9
100
AcDbVertex
100
AcDb2dVertex
 10
384.8216542706614
 20
351.0869800347009
 30
0.0
  0
VERTEX
  5
B0
330
AD
100
AcDbEntity
  8
0
 62
     7
420
 16777215
370
     9
100
AcDbVertex
100
AcDb2dVertex
 10
384.43694873602
 20
350.9065057234566
 30
0.0
  0
VERTEX
  5
B1
330
AD
100
AcDbEntity
  8
0
 62
     7
420
 16777215
370
     9
100
AcDbVertex
100
AcDb2dVertex
 10
371.4370555153291
 20
350.9065057359458
 30
0.0
  0
VERTEX
  5
B2
330
AD
100
AcDbEntity
  8
0
 62
     7
420
 16777215
370
     9
100
AcDbVertex
100
AcDb2dVertex
 10
371.1175298270609
 20
351.0219069810973
 30
0.0
  0
VERTEX
  5
B3
330
AD
100
AcDbEntity
  8
0
 62
     7
420
 16777215
370
     9
100
AcDbVertex
100
AcDb2dVertex
 10
370.9370555158112
 20
351.406505736426
 30
0.0
  0
VERTEX
  5
B4
330
AD
100
AcDbEntity
  8
0
 62
     7
420
 16777215
370
     9
100
AcDbVertex
100
AcDb2dVertex
 10
370.9370555283003
 20
364.4065057364296
 30
0.0
  0
VERTEX
  5
B5
330
AD
100
AcDbEntity
  8
0
 62
     7
420
 16777215
370
     9
100
AcDbVertex
100
AcDb2dVertex
 10
371.0524567734519
 20
364.7260314246978
 30
0.0
  0
VERTEX
  5
B6
330
AD
100
AcDbEntity
  8
0
 62
     7
420
 16777215
370
     9
100
AcDbVertex
100
AcDb2dVertex
 10
371.4369373053778
 20
364.9065057359458
 30
0.0
  0
VERTEX
  5
B7
330
AD
100
AcDbEntity
  8
0
 62
     7
420
 16777215
370
     9
100
AcDbVertex
100
AcDb2dVertex
 10
384.4370555287824
 20
364.9065057234529
 30
0.0
  0
VERTEX
  5
B8
330
AD
100
AcDbEntity
  8
0
 62
     7
420
 16777215
370
     9
100
AcDbVertex
100
AcDb2dVertex
 10
384.7565812170506
 20
364.791104478305
 30
0.0
  0
VERTEX
  5
B9
330
AD
100
AcDbEntity
  8
0
 62
     7
420
 16777215
370
     9
100
AcDbVertex
100
AcDb2dVertex
 10
384.9370555283003
 20
364.4065057229764
 30
0.0
  0
VERTEX
  5
BA
330
AD
100
AcDbEntity
  8
0
 62
     7
420
 16777215
370
     9
100
AcDbVertex
100
AcDb2dVertex
 10
384.9370555158112
 20
351.4065057229764
 30
0.0
  0
SEQEND
  5
BB
330
AD
100
AcDbEntity
  8
0
 62
     7
420
 16777215
370
     9
  0
ENDBLK
  5
AC
330
A9
100
AcDbEntity
  8
0
100
AcDbBlockEnd
  0
BLOCK
  5
BE
330
BC
100
AcDbEntity
  8
0
100
AcDbBlockBegin
  2
block 10
 70
     0
 10
0.0
 20
0.0
 30
0.0
  3
block 10
  1

  0
POLYLINE
  5
C0
330
BC
100
AcDbEntity
  8
0
 62
     7
420
 16777215
370
     9
100
AcDb2dPolyline
 66
     1
 10
0.0
 20
0.0
 30
0.0
  0
VERTEX
  5
C1
330
C0
100
AcDbEntity
  8
0
 62
     7
420
 16777215
370
     9
100
AcDbVertex
100
AcDb2dVertex
 10
223.0120555158119
 20
351.40650587854
 30
0.0
  0
VERTEX
  5
C2
330
C0
100
AcDbEntity
  8
0
 62
     7
420
 16777215
370
     9
100
AcDbVertex
100
AcDb2dVertex
 10
222.8966542706603
 20
351.0869801902754
 30
0.0
  0
VERTEX
  5
C3
330
C0
100
AcDbEntity
  8
0
 62
     7
420
 16777215
370
     9
100
AcDbVertex
100
AcDb2dVertex
 10
222.5119905069569
 20
350.9065058790238
 30
0.0
  0
VERTEX
  5
C4
330
C0
100
AcDbEntity
  8
0
 62
     7
420
 16777215
370
     9
100
AcDbVertex
100
AcDb2dVertex
 10
209.5120555153317
 20
350.906505891513
 30
0.0
  0
VERTEX
  5
C5
330
C0
100
AcDbEntity
  8
0
 62
     7
420
 16777215
370
     9
100
AcDbVertex
100
AcDb2dVertex
 10
209.1925298270617
 20
351.021907136661
 30
0.0
  0
VERTEX
  5
C6
330
C0
100
AcDbEntity
  8
0
 62
     7
420
 16777215
370
     9
100
AcDbVertex
100
AcDb2dVertex
 10
209.0120555158119
 20
351.4065058919932
 30
0.0
  0
VERTEX
  5
C7
330
C0
100
AcDbEntity
  8
0
 62
     7
420
 16777215
370
     9
100
AcDbVertex
100
AcDb2dVertex
 10
209.0120555283011
 20
364.4065058919932
 30
0.0
  0
VERTEX
  5
C8
330
C0
100
AcDbEntity
  8
0
 62
     7
420
 16777215
370
     9
100
AcDbVertex
100
AcDb2dVertex
 10
209.1274567734508
 20
364.726031580265
 30
0.0
  0
VERTEX
  5
C9
330
C0
100
AcDbEntity
  8
0
 62
     7
420
 16777215
370
     9
100
AcDbVertex
100
AcDb2dVertex
 10
209.5119790763129
 20
364.9065058915094
 30
0.0
  0
VERTEX
  5
CA
330
C0
100
AcDbEntity
  8
0
 62
     7
420
 16777215
370
     9
100
AcDbVertex
100
AcDb2dVertex
 10
222.5120555287813
 20
364.9065058790238
 30
0.0
  0
VERTEX
  5
CB
330
C0
100
AcDbEntity
  8
0
 62
     7
420
 16777215
370
     9
100
AcDbVertex
100
AcDb2dVertex
 10
222.8315812170495
 20
364.7911046338722
 30
0.0
  0
VERTEX
  5
CC
330
C0
100
AcDbEntity
  8
0
 62
     7
420
 16777215
370
     9
100
AcDbVertex
100
AcDb2dVertex
 10
223.0120555283011
 20
364.40650587854
 30
0.0
  0
VERTEX
  5
CD
330
C0
100
AcDbEntity
  8
0
 62
     7
420
 16777215
370
     9
100
AcDbVertex
100
AcDb2dVertex
 10
223.0120555158119
 20
351.40650587854
 30
0.0
  0
SEQEND
  5
CE
330
C0
100
AcDbEntity
  8
0
 62
     7
420
 16777215
370
     9
  0
ENDBLK
  5
BF
330
BC
100
AcDbEntity
  8
0
100
AcDbBlockEnd
  0
BLOCK
  5
D1
330
CF
100
AcDbEntity
  8
0
100
AcDbBlockBegin
  2
block 11
 70
     0
 10
0.0
 20
0.0
 30
0.0
  3
block 11
  1

  0
POLYLINE
  5
D3
330
CF
100
AcDbEntity
  8
0
 62
     7
420
 16777215
370
     9
100
AcDb2dPolyline
 66
     1
 10
0.0
 20
0.0
 30
0.0
  0
VERTEX
  5
D4
330
D3
100
AcDbEntity
  8
0
 62
     7
420
 16777215
370
     9
100
AcDbVertex
100
AcDb2dVertex
 10
199.1995555158119
 20
351.4065059014192
 30
0.0
  0
VERTEX
  5
D5
330
D3
100
AcDbEntity
  8
0
 62
     7
420
 16777215
370
     9
100
AcDbVertex
100
AcDb2dVertex
 10
199.0841542706603
 20
351.086980213151
 30
0.0
  0
VERTEX
  5
D6
330
D3
100
AcDbEntity
  8
0
 62
     7
420
 16777215
370
     9
100
AcDbVertex
100
AcDb2dVertex
 10
198.6994580820301
 20
350.9065059018994
 30
0.0
  0
VERTEX
  5
D7
330
D3
100
AcDbEntity
  8
0
 62
     7
420
 16777215
370
     9
100
AcDbVertex
100
AcDb2dVertex
 10
185.6995555153317
 20
350.9065059143923
 30
0.0
  0
VERTEX
  5
D8
330
D3
100
AcDbEntity
  8
0
 62
     7
420
 16777215
370
     9
100
AcDbVertex
100
AcDb2dVertex
 10
185.3800298270617
 20
351.0219071595366
 30
0.0
  0
VERTEX
  5
D9
330
D3
100
AcDbEntity
  8
0
 62
     7
420
 16777215
370
     9
100
AcDbVertex
100
AcDb2dVertex
 10
185.1995555158119
 20
351.4065059148688
 30
0.0
  0
VERTEX
  5
DA
330
D3
100
AcDbEntity
  8
0
 62
     7
420
 16777215
370
     9
100
AcDbVertex
100
AcDb2dVertex
 10
185.1995555282992
 20
364.4065059148688
 30
0.0
  0
VERTEX
  5
DB
330
D3
100
AcDbEntity
  8
0
 62
     7
420
 16777215
370
     9
100
AcDbVertex
100
AcDb2dVertex
 10
185.3149567734508
 20
364.7260316031407
 30
0.0
  0
VERTEX
  5
DC
330
D3
100
AcDbEntity
  8
0
 62
     7
420
 16777215
370
     9
100
AcDbVertex
100
AcDb2dVertex
 10
185.6994466513861
 20
364.906505914385
 30
0.0
  0
VERTEX
  5
DD
330
D3
100
AcDbEntity
  8
0
 62
     7
420
 16777215
370
     9
100
AcDbVertex
100
AcDb2dVertex
 10
198.6995555287813
 20
364.9065059018958
 30
0.0
  0
VERTEX
  5
DE
330
D3
100
AcDbEntity
  8
0
 62
     7
420
 16777215
370
     9
100
AcDbVertex
100
AcDb2dVertex
 10
199.0190812170495
 20
364.7911046567478
 30
0.0
  0
VERTEX
  5
DF
330
D3
100
AcDbEntity
  8
0
 62
     7
420
 16777215
370
     9
100
AcDbVertex
100
AcDb2dVertex
 10
199.1995555283011
 20
364.4065059014192
 30
0.0
  0
VERTEX
  5
E0
330
D3
100
AcDbEntity
  8
0
 62
     7
420
 16777215
370
     9
100
AcDbVertex
100
AcDb2dVertex
 10
199.1995555158119
 20
351.4065059014192
 30
0.0
  0
SEQEND
  5
E1
330
D3
100
AcDbEntity
  8
0
 62
     7
420
 16777215
370
     9
  0
ENDBLK
  5
D2
330
CF
100
AcDbEntity
  8
0
100
AcDbBlockEnd
  0
BLOCK
  5
E4
330
E2
100
AcDbEntity
  8
0
100
AcDbBlockBegin
  2
block 12
 70
     0
 10
0.0
 20
0.0
 30
0.0
  3
block 12
  1

  0
POLYLINE
  5
E6
330
E2
100
AcDbEntity
  8
0
 62
     7
420
 16777215
370
     9
100
AcDb2dPolyline
 66
     1
 10
0.0
 20
0.0
 30
0.0
  0
VERTEX
  5
E7
330
E6
100
AcDbEntity
  8
0
 62
     7
420
 16777215
370
     9
100
AcDbVertex
100
AcDb2dVertex
 10
175.3870555158119
 20
351.4065059242985
 30
0.0
  0
VERTEX
  5
E8
330
E6
100
AcDbEntity
  8
0
 62
     7
420
 16777215
370
     9
100
AcDbVertex
100
AcDb2dVertex
 10
175.2716542706603
 20
351.0869802360266
 30
0.0
  0
VERTEX
  5
E9
330
E6
100
AcDbEntity
  8
0
 62
     7
420
 16777215
370
     9
100
AcDbVertex
100
AcDb2dVertex
 10
174.8870448663929
 20
350.9065059247787
 30
0.0
  0
VERTEX
  5
EA
330
E6
100
AcDbEntity
  8
0
 62
     7
420
 16777215
370
     9
100
AcDbVertex
100
AcDb2dVertex
 10
161.8870555153317
 20
350.9065059372679
 30
0.0
  0
VERTEX
  5
EB
330
E6
100
AcDbEntity
  8
0
 62
     7
420
 16777215
370
     9
100
AcDbVertex
100
AcDb2dVertex
 10
161.5675298270617
 20
351.0219071824195
 30
0.0
  0
VERTEX
  5
EC
330
E6
100
AcDbEntity
  8
0
 62
     7
420
 16777215
370
     9
100
AcDbVertex
100
AcDb2dVertex
 10
161.3870555158119
 20
351.4065059377444
 30
0.0
  0
VERTEX
  5
ED
330
E6
100
AcDbEntity
  8
0
 62
     7
420
 16777215
370
     9
100
AcDbVertex
100
AcDb2dVertex
 10
161.3870555283011
 20
364.4065059377517
 30
0.0
  0
VERTEX
  5
EE
330
E6
100
AcDbEntity
  8
0
 62
     7
420
 16777215
370
     9
100
AcDbVertex
100
AcDb2dVertex
 10
161.5024567734508
 20
364.7260316260126
 30
0.0
  0
VERTEX
  5
EF
330
E6
100
AcDbEntity
  8
0
 62
     7
420
 16777215
370
     9
100
AcDbVertex
100
AcDb2dVertex
 10
161.8870334357489
 20
364.9065059372679
 30
0.0
  0
VERTEX
  5
F0
330
E6
100
AcDbEntity
  8
0
 62
     7
420
 16777215
370
     9
100
AcDbVertex
100
AcDb2dVertex
 10
174.8870555287795
 20
364.906505924775
 30
0.0
  0
VERTEX
  5
F1
330
E6
100
AcDbEntity
  8
0
 62
     7
420
 16777215
370
     9
100
AcDbVertex
100
AcDb2dVertex
 10
175.2065812170495
 20
364.7911046796235
 30
0.0
  0
VERTEX
  5
F2
330
E6
100
AcDbEntity
  8
0
 62
     7
420
 16777215
370
     9
100
AcDbVertex
100
AcDb2dVertex
 10
175.3870555282992
 20
364.4065059242985
 30
0.0
  0
VERTEX
  5
F3
330
E6
100
AcDbEntity
  8
0
 62
     7
420
 16777215
370
     9
100
AcDbVertex
100
AcDb2dVertex
 10
175.3870555158119
 20
351.4065059242985
 30
0.0
  0
SEQEND
  5
F4
330
E6
100
AcDbEntity
  8
0
 62
     7
420
 16777215
370
     9
  0
ENDBLK
  5
E5
330
E2
100
AcDbEntity
  8
0
100
AcDbBlockEnd
  0
BLOCK
  5
F7
330
F5
100
AcDbEntity
  8
0
100
AcDbBlockBegin
  2
block 13
 70
     0
 10
0.0
 20
0.0
 30
0.0
  3
block 13
  1

  0
POLYLINE
  5
F9
330
F5
100
AcDbEntity
  8
0
 62
     7
420
 16777215
370
     9
100
AcDb2dPolyline
 66
     1
 10
0.0
 20
0.0
 30
0.0
  0
VERTEX
  5
FA
330
F9
100
AcDbEntity
  8
0
 62
     7
420
 16777215
370
     9
100
AcDbVertex
100
AcDb2dVertex
 10
456.374555534112
 20
370.4565056543452
 30
0.0
  0
VERTEX
  5
FB
330
F9
100
AcDbEntity
  8
0
 62
     7
420
 16777215
370
     9
100
AcDbVertex
100
AcDb2dVertex
 10
456.2591542889641
 20
370.136979966077
 30
0.0
  0
VERTEX
  5
FC
330
F9
100
AcDbEntity
  8
0
 62
     7
420
 16777215
370
     9
100
AcDbVertex
100
AcDb2dVertex
 10
455.8745460291029
 20
369.9565056548254
 30
0.0
  0
VERTEX
  5
FD
330
F9
100
AcDbEntity
  8
0
 62
     7
420
 16777215
370
     9
100
AcDbVertex
100
AcDb2dVertex
 10
442.8745555336336
 20
369.9565056673109
 30
0.0
  0
VERTEX
  5
FE
330
F9
100
AcDbEntity
  8
0
 62
     7
420
 16777215
370
     9
100
AcDbVertex
100
AcDb2dVertex
 10
442.5550298453618
 20
370.0719069124625
 30
0.0
  0
VERTEX
  5
FF
330
F9
100
AcDbEntity
  8
0
 62
     7
420
 16777215
370
     9
100
AcDbVertex
100
AcDb2dVertex
 10
442.374555534112
 20
370.4565056677911
 30
0.0
  0
VERTEX
  5
100
330
F9
100
AcDbEntity
  8
0
 62
     7
420
 16777215
370
     9
100
AcDbVertex
100
AcDb2dVertex
 10
442.374555546603
 20
383.4565056677948
 30
0.0
  0
VERTEX
  5
101
330
F9
100
AcDbEntity
  8
0
 62
     7
420
 16777215
370
     9
100
AcDbVertex
100
AcDb2dVertex
 10
442.4899567917528
 20
383.7760313560666
 30
0.0
  0
VERTEX
  5
102
330
F9
100
AcDbEntity
  8
0
 62
     7
420
 16777215
370
     9
100
AcDbVertex
100
AcDb2dVertex
 10
442.8745345984607
 20
383.9565056673109
 30
0.0
  0
VERTEX
  5
103
330
F9
100
AcDbEntity
  8
0
 62
     7
420
 16777215
370
     9
100
AcDbVertex
100
AcDb2dVertex
 10
455.874555547085
 20
383.9565056548254
 30
0.0
  0
VERTEX
  5
104
330
F9
100
AcDbEntity
  8
0
 62
     7
420
 16777215
370
     9
100
AcDbVertex
100
AcDb2dVertex
 10
456.1940812353532
 20
383.8411044096738
 30
0.0
  0
VERTEX
  5
105
330
F9
100
AcDbEntity
  8
0
 62
     7
420
 16777215
370
     9
100
AcDbVertex
100
AcDb2dVertex
 10
456.374555546603
 20
383.4565056543415
 30
0.0
  0
VERTEX
  5
106
330
F9
100
AcDbEntity
  8
0
 62
     7
420
 16777215
370
     9
100
AcDbVertex
100
AcDb2dVertex
 10
456.374555534112
 20
370.4565056543452
 30
0.0
  0
SEQEND
  5
107
330
F9
100
AcDbEntity
  8
0
 62
     7
420
 16777215
370
     9
  0
ENDBLK
  5
F8
330
F5
100
AcDbEntity
  8
0
100
AcDbBlockEnd
  0
BLOCK
  5
10A
330
108
100
AcDbEntity
  8
0
100
AcDbBlockBegin
  2
block 14
 70
     0
 10
0.0
 20
0.0
 30
0.0
  3
block 14
  1

  0
POLYLINE
  5
10C
330
108
100
AcDbEntity
  8
0
 62
     7
420
 16777215
370
     9
100
AcDb2dPolyline
 66
     1
 10
0.0
 20
0.0
 30
0.0
  0
VERTEX
  5
10D
330
10C
100
AcDbEntity
  8
0
 62
     7
420
 16777215
370
     9
100
AcDbVertex
100
AcDb2dVertex
 10
437.3245555341127
 20
370.4565056726478
 30
0.0
  0
VERTEX
  5
10E
330
10C
100
AcDbEntity
  8
0
 62
     7
420
 16777215
370
     9
100
AcDbVertex
100
AcDb2dVertex
 10
437.2091542889611
 20
370.1369799843724
 30
0.0
  0
VERTEX
  5
10F
330
10C
100
AcDbEntity
  8
0
 62
     7
420
 16777215
370
     9
100
AcDbVertex
100
AcDb2dVertex
 10
436.8244247217299
 20
369.956505673128
 30
0.0
  0
VERTEX
  5
110
330
10C
100
AcDbEntity
  8
0
 62
     7
420
 16777215
370
     9
100
AcDbVertex
100
AcDb2dVertex
 10
423.8245555336325
 20
369.9565056856136
 30
0.0
  0
VERTEX
  5
111
330
10C
100
AcDbEntity
  8
0
 62
     7
420
 16777215
370
     9
100
AcDbVertex
100
AcDb2dVertex
 10
423.5050298453625
 20
370.0719069307652
 30
0.0
  0
VERTEX
  5
112
330
10C
100
AcDbEntity
  8
0
 62
     7
420
 16777215
370
     9
100
AcDbVertex
100
AcDb2dVertex
 10
423.3245555341127
 20
370.4565056860938
 30
0.0
  0
VERTEX
  5
113
330
10C
100
AcDbEntity
  8
0
 62
     7
420
 16777215
370
     9
100
AcDbVertex
100
AcDb2dVertex
 10
423.3245555466019
 20
383.4565056860974
 30
0.0
  0
VERTEX
  5
114
330
10C
100
AcDbEntity
  8
0
 62
     7
420
 16777215
370
     9
100
AcDbVertex
100
AcDb2dVertex
 10
423.4399567917535
 20
383.7760313743693
 30
0.0
  0
VERTEX
  5
115
330
10C
100
AcDbEntity
  8
0
 62
     7
420
 16777215
370
     9
100
AcDbVertex
100
AcDb2dVertex
 10
423.8244132910877
 20
383.9565056856136
 30
0.0
  0
VERTEX
  5
116
330
10C
100
AcDbEntity
  8
0
 62
     7
420
 16777215
370
     9
100
AcDbVertex
100
AcDb2dVertex
 10
436.8245555470821
 20
383.956505673128
 30
0.0
  0
VERTEX
  5
117
330
10C
100
AcDbEntity
  8
0
 62
     7
420
 16777215
370
     9
100
AcDbVertex
100
AcDb2dVertex
 10
437.144081235354
 20
383.8411044279765
 30
0.0
  0
VERTEX
  5
118
330
10C
100
AcDbEntity
  8
0
 62
     7
420
 16777215
370
     9
100
AcDbVertex
100
AcDb2dVertex
 10
437.3245555466019
 20
383.4565056726478
 30
0.0
  0
VERTEX
  5
119
330
10C
100
AcDbEntity
  8
0
 62
     7
420
 16777215
370
     9
100
AcDbVertex
100
AcDb2dVertex
 10
437.3245555341127
 20
370.4565056726478
 30
0.0
  0
SEQEND
  5
11A
330
10C
100
AcDbEntity
  8
0
 62
     7
420
 16777215
370
     9
  0
ENDBLK
  5
10B
330
108
100
AcDbEntity
  8
0
100
AcDbBlockEnd
  0
BLOCK
  5
11D
330
11B
100
AcDbEntity
  8
0
100
AcDbBlockBegin
  2
block 15
 70
     0
 10
0.0
 20
0.0
 30
0.0
  3
block 15
  1

  0
POLYLINE
  5
11F
330
11B
100
AcDbEntity
  8
0
 62
     7
420
 16777215
370
     9
100
AcDb2dPolyline
 66
     1
 10
0.0
 20
0.0
 30
0.0
  0
VERTEX
  5
120
330
11F
100
AcDbEntity
  8
0
 62
     7
420
 16777215
370
     9
100
AcDbVertex
100
AcDb2dVertex
 10
411.1308055341142
 20
370.4565056978117
 30
0.0
  0
VERTEX
  5
121
330
11F
100
AcDbEntity
  8
0
 62
     7
420
 16777215
370
     9
100
AcDbVertex
100
AcDb2dVertex
 10
411.0154042889626
 20
370.1369800095399
 30
0.0
  0
VERTEX
  5
122
330
11F
100
AcDbEntity
  8
0
 62
     7
420
 16777215
370
     9
100
AcDbVertex
100
AcDb2dVertex
 10
410.6305675287367
 20
369.9565056982919
 30
0.0
  0
VERTEX
  5
123
330
11F
100
AcDbEntity
  8
0
 62
     7
420
 16777215
370
     9
100
AcDbVertex
100
AcDb2dVertex
 10
397.630805533634
 20
369.9565057107811
 30
0.0
  0
VERTEX
  5
124
330
11F
100
AcDbEntity
  8
0
 62
     7
420
 16777215
370
     9
100
AcDbVertex
100
AcDb2dVertex
 10
397.3112798453622
 20
370.0719069559327
 30
0.0
  0
VERTEX
  5
125
330
11F
100
AcDbEntity
  8
0
 62
     7
420
 16777215
370
     9
100
AcDbVertex
100
AcDb2dVertex
 10
397.1308055341142
 20
370.4565057112613
 30
0.0
  0
VERTEX
  5
126
330
11F
100
AcDbEntity
  8
0
 62
     7
420
 16777215
370
     9
100
AcDbVertex
100
AcDb2dVertex
 10
397.1308055466034
 20
383.456505711265
 30
0.0
  0
VERTEX
  5
127
330
11F
100
AcDbEntity
  8
0
 62
     7
420
 16777215
370
     9
100
AcDbVertex
100
AcDb2dVertex
 10
397.2462067917531
 20
383.7760313995332
 30
0.0
  0
VERTEX
  5
128
330
11F
100
AcDbEntity
  8
0
 62
     7
420
 16777215
370
     9
100
AcDbVertex
100
AcDb2dVertex
 10
397.6307945166736
 20
383.9565057107775
 30
0.0
  0
VERTEX
  5
129
330
11F
100
AcDbEntity
  8
0
 62
     7
420
 16777215
370
     9
100
AcDbVertex
100
AcDb2dVertex
 10
410.6308055470836
 20
383.9565056982919
 30
0.0
  0
VERTEX
  5
12A
330
11F
100
AcDbEntity
  8
0
 62
     7
420
 16777215
370
     9
100
AcDbVertex
100
AcDb2dVertex
 10
410.9503312353554
 20
383.8411044531404
 30
0.0
  0
VERTEX
  5
12B
330
11F
100
AcDbEntity
  8
0
 62
     7
420
 16777215
370
     9
100
AcDbVertex
100
AcDb2dVertex
 10
411.1308055466034
 20
383.4565056978117
 30
0.0
  0
VERTEX
  5
12C
330
11F
100
AcDbEntity
  8
0
 62
     7
420
 16777215
370
     9
100
AcDbVertex
100
AcDb2dVertex
 10
411.1308055341142
 20
370.4565056978117
 30
0.0
  0
SEQEND
  5
12D
330
11F
100
AcDbEntity
  8
0
 62
     7
420
 16777215
370
     9
  0
ENDBLK
  5
11E
330
11B
100
AcDbEntity
  8
0
100
AcDbBlockEnd
  0
BLOCK
  5
130
330
12E
100
AcDbEntity
  8
0
100
AcDbBlockBegin
  2
block 16
 70
     0
 10
0.0
 20
0.0
 30
0.0
  3
block 16
  1

  0
POLYLINE
  5
132
330
12E
100
AcDbEntity
  8
0
 62
     7
420
 16777215
370
     9
100
AcDb2dPolyline
 66
     1
 10
0.0
 20
0.0
 30
0.0
  0
VERTEX
  5
133
330
132
100
AcDbEntity
  8
0
 62
     7
420
 16777215
370
     9
100
AcDbVertex
100
AcDb2dVertex
 10
384.937055534112
 20
370.4565057229756
 30
0.0
  0
VERTEX
  5
134
330
132
100
AcDbEntity
  8
0
 62
     7
420
 16777215
370
     9
100
AcDbVertex
100
AcDb2dVertex
 10
384.8216542889641
 20
370.1369800347038
 30
0.0
  0
VERTEX
  5
135
330
132
100
AcDbEntity
  8
0
 62
     7
420
 16777215
370
     9
100
AcDbVertex
100
AcDb2dVertex
 10
384.4369487543227
 20
369.9565057234595
 30
0.0
  0
VERTEX
  5
136
330
132
100
AcDbEntity
  8
0
 62
     7
420
 16777215
370
     9
100
AcDbVertex
100
AcDb2dVertex
 10
371.4370555336336
 20
369.956505735945
 30
0.0
  0
VERTEX
  5
137
330
132
100
AcDbEntity
  8
0
 62
     7
420
 16777215
370
     9
100
AcDbVertex
100
AcDb2dVertex
 10
371.1175298453618
 20
370.0719069810966
 30
0.0
  0
VERTEX
  5
138
330
132
100
AcDbEntity
  8
0
 62
     7
420
 16777215
370
     9
100
AcDbVertex
100
AcDb2dVertex
 10
370.937055534112
 20
370.4565057364252
 30
0.0
  0
VERTEX
  5
139
330
132
100
AcDbEntity
  8
0
 62
     7
420
 16777215
370
     9
100
AcDbVertex
100
AcDb2dVertex
 10
370.937055546603
 20
383.4565057364289
 30
0.0
  0
VERTEX
  5
13A
330
132
100
AcDbEntity
  8
0
 62
     7
420
 16777215
370
     9
100
AcDbVertex
100
AcDb2dVertex
 10
371.0524567917528
 20
383.7760314246971
 30
0.0
  0
VERTEX
  5
13B
330
132
100
AcDbEntity
  8
0
 62
     7
420
 16777215
370
     9
100
AcDbVertex
100
AcDb2dVertex
 10
371.4369373236805
 20
383.956505735945
 30
0.0
  0
VERTEX
  5
13C
330
132
100
AcDbEntity
  8
0
 62
     7
420
 16777215
370
     9
100
AcDbVertex
100
AcDb2dVertex
 10
384.437055547085
 20
383.9565057234595
 30
0.0
  0
VERTEX
  5
13D
330
132
100
AcDbEntity
  8
0
 62
     7
420
 16777215
370
     9
100
AcDbVertex
100
AcDb2dVertex
 10
384.7565812353532
 20
383.8411044783079
 30
0.0
  0
VERTEX
  5
13E
330
132
100
AcDbEntity
  8
0
 62
     7
420
 16777215
370
     9
100
AcDbVertex
100
AcDb2dVertex
 10
384.937055546603
 20
383.4565057229756
 30
0.0
  0
VERTEX
  5
13F
330
132
100
AcDbEntity
  8
0
 62
     7
420
 16777215
370
     9
100
AcDbVertex
100
AcDb2dVertex
 10
384.937055534112
 20
370.4565057229756
 30
0.0
  0
SEQEND
  5
140
330
132
100
AcDbEntity
  8
0
 62
     7
420
 16777215
370
     9
  0
ENDBLK
  5
131
330
12E
100
AcDbEntity
  8
0
100
AcDbBlockEnd
  0
BLOCK
  5
143
330
141
100
AcDbEntity
  8
0
100
AcDbBlockBegin
  2
block 17
 70
     0
 10
0.0
 20
0.0
 30
0.0
  3
block 17
  1

  0
POLYLINE
  5
145
330
141
100
AcDbEntity
  8
0
 62
     7
420
 16777215
370
     9
100
AcDb2dPolyline
 66
     1
 10
0.0
 20
0.0
 30
0.0
  0
VERTEX
  5
146
330
145
100
AcDbEntity
  8
0
 62
     7
420
 16777215
370
     9
100
AcDbVertex
100
AcDb2dVertex
 10
365.8870555341127
 20
370.4565057412783
 30
0.0
  0
VERTEX
  5
147
330
145
100
AcDbEntity
  8
0
 62
     7
420
 16777215
370
     9
100
AcDbVertex
100
AcDb2dVertex
 10
365.7716542889611
 20
370.1369800530101
 30
0.0
  0
VERTEX
  5
148
330
145
100
AcDbEntity
  8
0
 62
     7
420
 16777215
370
     9
100
AcDbVertex
100
AcDb2dVertex
 10
365.3868274469496
 20
369.9565057417549
 30
0.0
  0
VERTEX
  5
149
330
145
100
AcDbEntity
  8
0
 62
     7
420
 16777215
370
     9
100
AcDbVertex
100
AcDb2dVertex
 10
352.3870555336325
 20
369.9565057542477
 30
0.0
  0
VERTEX
  5
14A
330
145
100
AcDbEntity
  8
0
 62
     7
420
 16777215
370
     9
100
AcDbVertex
100
AcDb2dVertex
 10
352.0675298453625
 20
370.0719069993993
 30
0.0
  0
VERTEX
  5
14B
330
145
100
AcDbEntity
  8
0
 62
     7
420
 16777215
370
     9
100
AcDbVertex
100
AcDb2dVertex
 10
351.8870555341127
 20
370.4565057547279
 30
0.0
  0
VERTEX
  5
14C
330
145
100
AcDbEntity
  8
0
 62
     7
420
 16777215
370
     9
100
AcDbVertex
100
AcDb2dVertex
 10
351.8870555466019
 20
383.4565057547243
 30
0.0
  0
VERTEX
  5
14D
330
145
100
AcDbEntity
  8
0
 62
     7
420
 16777215
370
     9
100
AcDbVertex
100
AcDb2dVertex
 10
352.0024567917535
 20
383.7760314429997
 30
0.0
  0
VERTEX
  5
14E
330
145
100
AcDbEntity
  8
0
 62
     7
420
 16777215
370
     9
100
AcDbVertex
100
AcDb2dVertex
 10
352.3870544348865
 20
383.9565057542477
 30
0.0
  0
VERTEX
  5
14F
330
145
100
AcDbEntity
  8
0
 62
     7
420
 16777215
370
     9
100
AcDbVertex
100
AcDb2dVertex
 10
365.3870555470821
 20
383.9565057417622
 30
0.0
  0
VERTEX
  5
150
330
145
100
AcDbEntity
  8
0
 62
     7
420
 16777215
370
     9
100
AcDbVertex
100
AcDb2dVertex
 10
365.706581235354
 20
383.8411044966106
 30
0.0
  0
VERTEX
  5
151
330
145
100
AcDbEntity
  8
0
 62
     7
420
 16777215
370
     9
100
AcDbVertex
100
AcDb2dVertex
 10
365.8870555466019
 20
383.4565057412783
 30
0.0
  0
VERTEX
  5
152
330
145
100
AcDbEntity
  8
0
 62
     7
420
 16777215
370
     9
100
AcDbVertex
100
AcDb2dVertex
 10
365.8870555341127
 20
370.4565057412783
 30
0.0
  0
SEQEND
  5
153
330
145
100
AcDbEntity
  8
0
 62
     7
420
 16777215
370
     9
  0
ENDBLK
  5
144
330
141
100
AcDbEntity
  8
0
100
AcDbBlockEnd
  0
BLOCK
  5
156
330
154
100
AcDbEntity
  8
0
100
AcDbBlockBegin
  2
block 18
 70
     0
 10
0.0
 20
0.0
 30
0.0
  3
block 18
  1

  0
POLYLINE
  5
158
330
154
100
AcDbEntity
  8
0
 62
     7
420
 16777215
370
     9
100
AcDb2dPolyline
 66
     1
 10
0.0
 20
0.0
 30
0.0
  0
VERTEX
  5
159
330
158
100
AcDbEntity
  8
0
 62
     7
420
 16777215
370
     9
100
AcDbVertex
100
AcDb2dVertex
 10
346.8370555341135
 20
370.456505759581
 30
0.0
  0
VERTEX
  5
15A
330
158
100
AcDbEntity
  8
0
 62
     7
420
 16777215
370
     9
100
AcDbVertex
100
AcDb2dVertex
 10
346.7216542889619
 20
370.1369800713128
 30
0.0
  0
VERTEX
  5
15B
330
158
100
AcDbEntity
  8
0
 62
     7
420
 16777215
370
     9
100
AcDbVertex
100
AcDb2dVertex
 10
346.3369445581557
 20
369.9565057600576
 30
0.0
  0
VERTEX
  5
15C
330
158
100
AcDbEntity
  8
0
 62
     7
420
 16777215
370
     9
100
AcDbVertex
100
AcDb2dVertex
 10
333.3370555336332
 20
369.9565057725504
 30
0.0
  0
VERTEX
  5
15D
330
158
100
AcDbEntity
  8
0
 62
     7
420
 16777215
370
     9
100
AcDbVertex
100
AcDb2dVertex
 10
333.0175298453614
 20
370.0719070176983
 30
0.0
  0
VERTEX
  5
15E
330
158
100
AcDbEntity
  8
0
 62
     7
420
 16777215
370
     9
100
AcDbVertex
100
AcDb2dVertex
 10
332.8370555341135
 20
370.4565057730342
 30
0.0
  0
VERTEX
  5
15F
330
158
100
AcDbEntity
  8
0
 62
     7
420
 16777215
370
     9
100
AcDbVertex
100
AcDb2dVertex
 10
332.8370555466026
 20
383.4565057730306
 30
0.0
  0
VERTEX
  5
160
330
158
100
AcDbEntity
  8
0
 62
     7
420
 16777215
370
     9
100
AcDbVertex
100
AcDb2dVertex
 10
332.9524567917524
 20
383.7760314613024
 30
0.0
  0
VERTEX
  5
161
330
158
100
AcDbEntity
  8
0
 62
     7
420
 16777215
370
     9
100
AcDbVertex
100
AcDb2dVertex
 10
333.3369331275135
 20
383.9565057725504
 30
0.0
  0
VERTEX
  5
162
330
158
100
AcDbEntity
  8
0
 62
     7
420
 16777215
370
     9
100
AcDbVertex
100
AcDb2dVertex
 10
346.3370555470829
 20
383.9565057600576
 30
0.0
  0
VERTEX
  5
163
330
158
100
AcDbEntity
  8
0
 62
     7
420
 16777215
370
     9
100
AcDbVertex
100
AcDb2dVertex
 10
346.6565812353547
 20
383.8411045149096
 30
0.0
  0
VERTEX
  5
164
330
158
100
AcDbEntity
  8
0
 62
     7
420
 16777215
370
     9
100
AcDbVertex
100
AcDb2dVertex
 10
346.8370555466026
 20
383.4565057595773
 30
0.0
  0
VERTEX
  5
165
330
158
100
AcDbEntity
  8
0
 62
     7
420
 16777215
370
     9
100
AcDbVertex
100
AcDb2dVertex
 10
346.8370555341135
 20
370.456505759581
 30
0.0
  0
SEQEND
  5
166
330
158
100
AcDbEntity
  8
0
 62
     7
420
 16777215
370
     9
  0
ENDBLK
  5
157
330
154
100
AcDbEntity
  8
0
100
AcDbBlockEnd
  0
BLOCK
  5
169
330
167
100
AcDbEntity
  8
0
100
AcDbBlockBegin
  2
block 19
 70
     0
 10
0.0
 20
0.0
 30
0.0
  3
block 19
  1

  0
POLYLINE
  5
16B
330
167
100
AcDbEntity
  8
0
 62
     7
420
 16777215
370
     9
100
AcDb2dPolyline
 66
     1
 10
0.0
 20
0.0
 30
0.0
  0
VERTEX
  5
16C
330
16B
100
AcDbEntity
  8
0
 62
     7
420
 16777215
370
     9
100
AcDbVertex
100
AcDb2dVertex
 10
327.7870555341142
 20
370.4565057778764
 30
0.0
  0
VERTEX
  5
16D
330
16B
100
AcDbEntity
  8
0
 62
     7
420
 16777215
370
     9
100
AcDbVertex
100
AcDb2dVertex
 10
327.6716542889626
 20
370.1369800896155
 30
0.0
  0
VERTEX
  5
16E
330
16B
100
AcDbEntity
  8
0
 62
     7
420
 16777215
370
     9
100
AcDbVertex
100
AcDb2dVertex
 10
327.2868232507826
 20
369.9565057783639
 30
0.0
  0
VERTEX
  5
16F
330
16B
100
AcDbEntity
  8
0
 62
     7
420
 16777215
370
     9
100
AcDbVertex
100
AcDb2dVertex
 10
314.287055533634
 20
369.9565057908494
 30
0.0
  0
VERTEX
  5
170
330
16B
100
AcDbEntity
  8
0
 62
     7
420
 16777215
370
     9
100
AcDbVertex
100
AcDb2dVertex
 10
313.9675298453622
 20
370.071907036001
 30
0.0
  0
VERTEX
  5
171
330
16B
100
AcDbEntity
  8
0
 62
     7
420
 16777215
370
     9
100
AcDbVertex
100
AcDb2dVertex
 10
313.7870555341142
 20
370.4565057913296
 30
0.0
  0
VERTEX
  5
172
330
16B
100
AcDbEntity
  8
0
 62
     7
420
 16777215
370
     9
100
AcDbVertex
100
AcDb2dVertex
 10
313.7870555466034
 20
383.4565057913333
 30
0.0
  0
VERTEX
  5
173
330
16B
100
AcDbEntity
  8
0
 62
     7
420
 16777215
370
     9
100
AcDbVertex
100
AcDb2dVertex
 10
313.9024567917531
 20
383.7760314796014
 30
0.0
  0
VERTEX
  5
174
330
16B
100
AcDbEntity
  8
0
 62
     7
420
 16777215
370
     9
100
AcDbVertex
100
AcDb2dVertex
 10
314.2870502387195
 20
383.956505790853
 30
0.0
  0
VERTEX
  5
175
330
16B
100
AcDbEntity
  8
0
 62
     7
420
 16777215
370
     9
100
AcDbVertex
100
AcDb2dVertex
 10
327.2870555470836
 20
383.9565057783639
 30
0.0
  0
VERTEX
  5
176
330
16B
100
AcDbEntity
  8
0
 62
     7
420
 16777215
370
     9
100
AcDbVertex
100
AcDb2dVertex
 10
327.6065812353518
 20
383.8411045332123
 30
0.0
  0
VERTEX
  5
177
330
16B
100
AcDbEntity
  8
0
 62
     7
420
 16777215
370
     9
100
AcDbVertex
100
AcDb2dVertex
 10
327.7870555466034
 20
383.45650577788
 30
0.0
  0
VERTEX
  5
178
330
16B
100
AcDbEntity
  8
0
 62
     7
420
 16777215
370
     9
100
AcDbVertex
100
AcDb2dVertex
 10
327.7870555341142
 20
370.4565057778764
 30
0.0
  0
SEQEND
  5
179
330
16B
100
AcDbEntity
  8
0
 62
     7
420
 16777215
370
     9
  0
ENDBLK
  5
16A
330
167
100
AcDbEntity
  8
0
100
AcDbBlockEnd
  0
BLOCK
  5
17C
330
17A
100
AcDbEntity
  8
0
100
AcDbBlockBegin
  2
block 20
 70
     0
 10
0.0
 20
0.0
 30
0.0
  3
block 20
  1

  0
POLYLINE
  5
17E
330
17A
100
AcDbEntity
  8
0
 62
     7
420
 16777215
370
     9
100
AcDb2dPolyline
 66
     1
 10
0.0
 20
0.0
 30
0.0
  0
VERTEX
  5
17F
330
17E
100
AcDbEntity
  8
0
 62
     7
420
 16777215
370
     9
100
AcDbVertex
100
AcDb2dVertex
 10
308.7370555341113
 20
370.456505796179
 30
0.0
  0
VERTEX
  5
180
330
17E
100
AcDbEntity
  8
0
 62
     7
420
 16777215
370
     9
100
AcDbVertex
100
AcDb2dVertex
 10
308.6216542889633
 20
370.1369801079109
 30
0.0
  0
VERTEX
  5
181
330
17E
100
AcDbEntity
  8
0
 62
     7
420
 16777215
370
     9
100
AcDbVertex
100
AcDb2dVertex
 10
308.2369403619887
 20
369.9565057966665
 30
0.0
  0
VERTEX
  5
182
330
17E
100
AcDbEntity
  8
0
 62
     7
420
 16777215
370
     9
100
AcDbVertex
100
AcDb2dVertex
 10
295.2370555336329
 20
369.9565058091521
 30
0.0
  0
VERTEX
  5
183
330
17E
100
AcDbEntity
  8
0
 62
     7
420
 16777215
370
     9
100
AcDbVertex
100
AcDb2dVertex
 10
294.9175298453629
 20
370.0719070543037
 30
0.0
  0
VERTEX
  5
184
330
17E
100
AcDbEntity
  8
0
 62
     7
420
 16777215
370
     9
100
AcDbVertex
100
AcDb2dVertex
 10
294.7370555341131
 20
370.4565058096323
 30
0.0
  0
VERTEX
  5
185
330
17E
100
AcDbEntity
  8
0
 62
     7
420
 16777215
370
     9
100
AcDbVertex
100
AcDb2dVertex
 10
294.7370555466005
 20
383.4565058096323
 30
0.0
  0
VERTEX
  5
186
330
17E
100
AcDbEntity
  8
0
 62
     7
420
 16777215
370
     9
100
AcDbVertex
100
AcDb2dVertex
 10
294.852456791752
 20
383.7760314979078
 30
0.0
  0
VERTEX
  5
187
330
17E
100
AcDbEntity
  8
0
 62
     7
420
 16777215
370
     9
100
AcDbVertex
100
AcDb2dVertex
 10
295.2369289313465
 20
383.9565058091557
 30
0.0
  0
VERTEX
  5
188
330
17E
100
AcDbEntity
  8
0
 62
     7
420
 16777215
370
     9
100
AcDbVertex
100
AcDb2dVertex
 10
308.2370555470843
 20
383.9565057966665
 30
0.0
  0
VERTEX
  5
189
330
17E
100
AcDbEntity
  8
0
 62
     7
420
 16777215
370
     9
100
AcDbVertex
100
AcDb2dVertex
 10
308.5565812353525
 20
383.8411045515149
 30
0.0
  0
VERTEX
  5
18A
330
17E
100
AcDbEntity
  8
0
 62
     7
420
 16777215
370
     9
100
AcDbVertex
100
AcDb2dVertex
 10
308.7370555466023
 20
383.4565057961827
 30
0.0
  0
VERTEX
  5
18B
330
17E
100
AcDbEntity
  8
0
 62
     7
420
 16777215
370
     9
100
AcDbVertex
100
AcDb2dVertex
 10
308.7370555341113
 20
370.456505796179
 30
0.0
  0
SEQEND
  5
18C
330
17E
100
AcDbEntity
  8
0
 62
     7
420
 16777215
370
     9
  0
ENDBLK
  5
17D
330
17A
100
AcDbEntity
  8
0
100
AcDbBlockEnd
  0
BLOCK
  5
18F
330
18D
100
AcDbEntity
  8
0
100
AcDbBlockBegin
  2
block 21
 70
     0
 10
0.0
 20
0.0
 30
0.0
  3
block 21
  1

  0
POLYLINE
  5
191
330
18D
100
AcDbEntity
  8
0
 62
     7
420
 16777215
370
     9
100
AcDb2dPolyline
 66
     1
 10
0.0
 20
0.0
 30
0.0
  0
VERTEX
  5
192
330
191
100
AcDbEntity
  8
0
 62
     7
420
 16777215
370
     9
100
AcDbVertex
100
AcDb2dVertex
 10
289.6870555341138
 20
370.4565058144854
 30
0.0
  0
VERTEX
  5
193
330
191
100
AcDbEntity
  8
0
 62
     7
420
 16777215
370
     9
100
AcDbVertex
100
AcDb2dVertex
 10
289.5716542889622
 20
370.1369801262135
 30
0.0
  0
VERTEX
  5
194
330
191
100
AcDbEntity
  8
0
 62
     7
420
 16777215
370
     9
100
AcDbVertex
100
AcDb2dVertex
 10
289.1868190546156
 20
369.9565058149692
 30
0.0
  0
VERTEX
  5
195
330
191
100
AcDbEntity
  8
0
 62
     7
420
 16777215
370
     9
100
AcDbVertex
100
AcDb2dVertex
 10
276.1870555336336
 20
369.9565058274547
 30
0.0
  0
VERTEX
  5
196
330
191
100
AcDbEntity
  8
0
 62
     7
420
 16777215
370
     9
100
AcDbVertex
100
AcDb2dVertex
 10
275.8675298453636
 20
370.0719070726063
 30
0.0
  0
VERTEX
  5
197
330
191
100
AcDbEntity
  8
0
 62
     7
420
 16777215
370
     9
100
AcDbVertex
100
AcDb2dVertex
 10
275.6870555341138
 20
370.456505827935
 30
0.0
  0
VERTEX
  5
198
330
191
100
AcDbEntity
  8
0
 62
     7
420
 16777215
370
     9
100
AcDbVertex
100
AcDb2dVertex
 10
275.6870555466012
 20
383.4565058279313
 30
0.0
  0
VERTEX
  5
199
330
191
100
AcDbEntity
  8
0
 62
     7
420
 16777215
370
     9
100
AcDbVertex
100
AcDb2dVertex
 10
275.8024567917528
 20
383.7760315162068
 30
0.0
  0
VERTEX
  5
19A
330
191
100
AcDbEntity
  8
0
 62
     7
420
 16777215
370
     9
100
AcDbVertex
100
AcDb2dVertex
 10
276.1870460425525
 20
383.9565058274547
 30
0.0
  0
VERTEX
  5
19B
330
191
100
AcDbEntity
  8
0
 62
     7
420
 16777215
370
     9
100
AcDbVertex
100
AcDb2dVertex
 10
289.1870555470814
 20
383.9565058149692
 30
0.0
  0
VERTEX
  5
19C
330
191
100
AcDbEntity
  8
0
 62
     7
420
 16777215
370
     9
100
AcDbVertex
100
AcDb2dVertex
 10
289.5065812353532
 20
383.8411045698176
 30
0.0
  0
VERTEX
  5
19D
330
191
100
AcDbEntity
  8
0
 62
     7
420
 16777215
370
     9
100
AcDbVertex
100
AcDb2dVertex
 10
289.687055546603
 20
383.456505814489
 30
0.0
  0
VERTEX
  5
19E
330
191
100
AcDbEntity
  8
0
 62
     7
420
 16777215
370
     9
100
AcDbVertex
100
AcDb2dVertex
 10
289.6870555341138
 20
370.4565058144854
 30
0.0
  0
SEQEND
  5
19F
330
191
100
AcDbEntity
  8
0
 62
     7
420
 16777215
370
     9
  0
ENDBLK
  5
190
330
18D
100
AcDbEntity
  8
0
100
AcDbBlockEnd
  0
BLOCK
  5
1A2
330
1A0
100
AcDbEntity
  8
0
100
AcDbBlockBegin
  2
block 22
 70
     0
 10
0.0
 20
0.0
 30
0.0
  3
block 22
  1

  0
POLYLINE
  5
1A4
330
1A0
100
AcDbEntity
  8
0
 62
     7
420
 16777215
370
     9
100
AcDb2dPolyline
 66
     1
 10
0.0
 20
0.0
 30
0.0
  0
VERTEX
  5
1A5
330
1A4
100
AcDbEntity
  8
0
 62
     7
420
 16777215
370
     9
100
AcDbVertex
100
AcDb2dVertex
 10
270.6370555341127
 20
370.456505832788
 30
0.0
  0
VERTEX
  5
1A6
330
1A4
100
AcDbEntity
  8
0
 62
     7
420
 16777215
370
     9
100
AcDbVertex
100
AcDb2dVertex
 10
270.521654288963
 20
370.1369801445162
 30
0.0
  0
VERTEX
  5
1A7
330
1A4
100
AcDbEntity
  8
0
 62
     7
420
 16777215
370
     9
100
AcDbVertex
100
AcDb2dVertex
 10
270.1369361658217
 20
369.9565058332682
 30
0.0
  0
VERTEX
  5
1A8
330
1A4
100
AcDbEntity
  8
0
 62
     7
420
 16777215
370
     9
100
AcDbVertex
100
AcDb2dVertex
 10
257.1370555336325
 20
369.9565058457574
 30
0.0
  0
VERTEX
  5
1A9
330
1A4
100
AcDbEntity
  8
0
 62
     7
420
 16777215
370
     9
100
AcDbVertex
100
AcDb2dVertex
 10
256.8175298453625
 20
370.071907090909
 30
0.0
  0
VERTEX
  5
1AA
330
1A4
100
AcDbEntity
  8
0
 62
     7
420
 16777215
370
     9
100
AcDbVertex
100
AcDb2dVertex
 10
256.6370555341127
 20
370.4565058462376
 30
0.0
  0
VERTEX
  5
1AB
330
1A4
100
AcDbEntity
  8
0
 62
     7
420
 16777215
370
     9
100
AcDbVertex
100
AcDb2dVertex
 10
256.6370555466019
 20
383.456505846234
 30
0.0
  0
VERTEX
  5
1AC
330
1A4
100
AcDbEntity
  8
0
 62
     7
420
 16777215
370
     9
100
AcDbVertex
100
AcDb2dVertex
 10
256.7524567917535
 20
383.7760315345058
 30
0.0
  0
VERTEX
  5
1AD
330
1A4
100
AcDbEntity
  8
0
 62
     7
420
 16777215
370
     9
100
AcDbVertex
100
AcDb2dVertex
 10
257.137043944469
 20
383.9565058457574
 30
0.0
  0
VERTEX
  5
1AE
330
1A4
100
AcDbEntity
  8
0
 62
     7
420
 16777215
370
     9
100
AcDbVertex
100
AcDb2dVertex
 10
270.1370555470821
 20
383.9565058332646
 30
0.0
  0
VERTEX
  5
1AF
330
1A4
100
AcDbEntity
  8
0
 62
     7
420
 16777215
370
     9
100
AcDbVertex
100
AcDb2dVertex
 10
270.456581235354
 20
383.8411045881203
 30
0.0
  0
VERTEX
  5
1B0
330
1A4
100
AcDbEntity
  8
0
 62
     7
420
 16777215
370
     9
100
AcDbVertex
100
AcDb2dVertex
 10
270.6370555466019
 20
383.456505832788
 30
0.0
  0
VERTEX
  5
1B1
330
1A4
100
AcDbEntity
  8
0
 62
     7
420
 16777215
370
     9
100
AcDbVertex
100
AcDb2dVertex
 10
270.6370555341127
 20
370.456505832788
 30
0.0
  0
SEQEND
  5
1B2
330
1A4
100
AcDbEntity
  8
0
 62
     7
420
 16777215
370
     9
  0
ENDBLK
  5
1A3
330
1A0
100
AcDbEntity
  8
0
100
AcDbBlockEnd
  0
BLOCK
  5
1B5
330
1B3
100
AcDbEntity
  8
0
100
AcDbBlockBegin
  2
block 23
 70
     0
 10
0.0
 20
0.0
 30
0.0
  3
block 23
  1

  0
POLYLINE
  5
1B7
330
1B3
100
AcDbEntity
  8
0
 62
     7
420
 16777215
370
     9
100
AcDb2dPolyline
 66
     1
 10
0.0
 20
0.0
 30
0.0
  0
VERTEX
  5
1B8
330
1B7
100
AcDbEntity
  8
0
 62
     7
420
 16777215
370
     9
100
AcDbVertex
100
AcDb2dVertex
 10
251.5870555341135
 20
370.4565058510907
 30
0.0
  0
VERTEX
  5
1B9
330
1B7
100
AcDbEntity
  8
0
 62
     7
420
 16777215
370
     9
100
AcDbVertex
100
AcDb2dVertex
 10
251.4716542889619
 20
370.1369801628225
 30
0.0
  0
VERTEX
  5
1BA
330
1B7
100
AcDbEntity
  8
0
 62
     7
420
 16777215
370
     9
100
AcDbVertex
100
AcDb2dVertex
 10
251.0870532770277
 20
369.9565058515709
 30
0.0
  0
VERTEX
  5
1BB
330
1B7
100
AcDbEntity
  8
0
 62
     7
420
 16777215
370
     9
100
AcDbVertex
100
AcDb2dVertex
 10
238.0870555336314
 20
369.9565058640601
 30
0.0
  0
VERTEX
  5
1BC
330
1B7
100
AcDbEntity
  8
0
 62
     7
420
 16777215
370
     9
100
AcDbVertex
100
AcDb2dVertex
 10
237.7675298453632
 20
370.071907109208
 30
0.0
  0
VERTEX
  5
1BD
330
1B7
100
AcDbEntity
  8
0
 62
     7
420
 16777215
370
     9
100
AcDbVertex
100
AcDb2dVertex
 10
237.5870555341135
 20
370.4565058645367
 30
0.0
  0
VERTEX
  5
1BE
330
1B7
100
AcDbEntity
  8
0
 62
     7
420
 16777215
370
     9
100
AcDbVertex
100
AcDb2dVertex
 10
237.5870555466026
 20
383.4565058645403
 30
0.0
  0
VERTEX
  5
1BF
330
1B7
100
AcDbEntity
  8
0
 62
     7
420
 16777215
370
     9
100
AcDbVertex
100
AcDb2dVertex
 10
237.7024567917542
 20
383.7760315528085
 30
0.0
  0
VERTEX
  5
1C0
330
1B7
100
AcDbEntity
  8
0
 62
     7
420
 16777215
370
     9
100
AcDbVertex
100
AcDb2dVertex
 10
238.0870418463855
 20
383.9565058640601
 30
0.0
  0
VERTEX
  5
1C1
330
1B7
100
AcDbEntity
  8
0
 62
     7
420
 16777215
370
     9
100
AcDbVertex
100
AcDb2dVertex
 10
251.0870555470829
 20
383.9565058515673
 30
0.0
  0
VERTEX
  5
1C2
330
1B7
100
AcDbEntity
  8
0
 62
     7
420
 16777215
370
     9
100
AcDbVertex
100
AcDb2dVertex
 10
251.4065812353547
 20
383.8411046064157
 30
0.0
  0
VERTEX
  5
1C3
330
1B7
100
AcDbEntity
  8
0
 62
     7
420
 16777215
370
     9
100
AcDbVertex
100
AcDb2dVertex
 10
251.5870555466026
 20
383.4565058510871
 30
0.0
  0
VERTEX
  5
1C4
330
1B7
100
AcDbEntity
  8
0
 62
     7
420
 16777215
370
     9
100
AcDbVertex
100
AcDb2dVertex
 10
251.5870555341135
 20
370.4565058510907
 30
0.0
  0
SEQEND
  5
1C5
330
1B7
100
AcDbEntity
  8
0
 62
     7
420
 16777215
370
     9
  0
ENDBLK
  5
1B6
330
1B3
100
AcDbEntity
  8
0
100
AcDbBlockEnd
  0
BLOCK
  5
1C8
330
1C6
100
AcDbEntity
  8
0
100
AcDbBlockBegin
  2
block 24
 70
     0
 10
0.0
 20
0.0
 30
0.0
  3
block 24
  1

  0
POLYLINE
  5
1CA
330
1C6
100
AcDbEntity
  8
0
 62
     7
420
 16777215
370
     9
100
AcDb2dPolyline
 66
     1
 10
0.0
 20
0.0
 30
0.0
  0
VERTEX
  5
1CB
330
1CA
100
AcDbEntity
  8
0
 62
     7
420
 16777215
370
     9
100
AcDbVertex
100
AcDb2dVertex
 10
232.5370555341124
 20
370.4565058693934
 30
0.0
  0
VERTEX
  5
1CC
330
1CA
100
AcDbEntity
  8
0
 62
     7
420
 16777215
370
     9
100
AcDbVertex
100
AcDb2dVertex
 10
232.4216542889608
 20
370.1369801811215
 30
0.0
  0
VERTEX
  5
1CD
330
1CA
100
AcDbEntity
  8
0
 62
     7
420
 16777215
370
     9
100
AcDbVertex
100
AcDb2dVertex
 10
232.0370511789442
 20
369.9565058698736
 30
0.0
  0
VERTEX
  5
1CE
330
1CA
100
AcDbEntity
  8
0
 62
     7
420
 16777215
370
     9
100
AcDbVertex
100
AcDb2dVertex
 10
219.0370555336322
 20
369.9565058823628
 30
0.0
  0
VERTEX
  5
1CF
330
1CA
100
AcDbEntity
  8
0
 62
     7
420
 16777215
370
     9
100
AcDbVertex
100
AcDb2dVertex
 10
218.7175298453622
 20
370.0719071275107
 30
0.0
  0
VERTEX
  5
1D0
330
1CA
100
AcDbEntity
  8
0
 62
     7
420
 16777215
370
     9
100
AcDbVertex
100
AcDb2dVertex
 10
218.5370555341124
 20
370.4565058828393
 30
0.0
  0
VERTEX
  5
1D1
330
1CA
100
AcDbEntity
  8
0
 62
     7
420
 16777215
370
     9
100
AcDbVertex
100
AcDb2dVertex
 10
218.5370555466034
 20
383.456505882843
 30
0.0
  0
VERTEX
  5
1D2
330
1CA
100
AcDbEntity
  8
0
 62
     7
420
 16777215
370
     9
100
AcDbVertex
100
AcDb2dVertex
 10
218.6524567917531
 20
383.7760315711112
 30
0.0
  0
VERTEX
  5
1D3
330
1CA
100
AcDbEntity
  8
0
 62
     7
420
 16777215
370
     9
100
AcDbVertex
100
AcDb2dVertex
 10
219.037039748302
 20
383.9565058823628
 30
0.0
  0
VERTEX
  5
1D4
330
1CA
100
AcDbEntity
  8
0
 62
     7
420
 16777215
370
     9
100
AcDbVertex
100
AcDb2dVertex
 10
232.0370555470818
 20
383.9565058698736
 30
0.0
  0
VERTEX
  5
1D5
330
1CA
100
AcDbEntity
  8
0
 62
     7
420
 16777215
370
     9
100
AcDbVertex
100
AcDb2dVertex
 10
232.3565812353536
 20
383.841104624722
 30
0.0
  0
VERTEX
  5
1D6
330
1CA
100
AcDbEntity
  8
0
 62
     7
420
 16777215
370
     9
100
AcDbVertex
100
AcDb2dVertex
 10
232.5370555466034
 20
383.4565058693897
 30
0.0
  0
VERTEX
  5
1D7
330
1CA
100
AcDbEntity
  8
0
 62
     7
420
 16777215
370
     9
100
AcDbVertex
100
AcDb2dVertex
 10
232.5370555341124
 20
370.4565058693934
 30
0.0
  0
SEQEND
  5
1D8
330
1CA
100
AcDbEntity
  8
0
 62
     7
420
 16777215
370
     9
  0
ENDBLK
  5
1C9
330
1C6
100
AcDbEntity
  8
0
100
AcDbBlockEnd
  0
BLOCK
  5
1DB
330
1D9
100
AcDbEntity
  8
0
100
AcDbBlockBegin
  2
block 25
 70
     0
 10
0.0
 20
0.0
 30
0.0
  3
block 25
  1

  0
POLYLINE
  5
1DD
330
1D9
100
AcDbEntity
  8
0
 62
     7
420
 16777215
370
     9
100
AcDb2dPolyline
 66
     1
 10
0.0
 20
0.0
 30
0.0
  0
VERTEX
  5
1DE
330
1DD
100
AcDbEntity
  8
0
 62
     7
420
 16777215
370
     9
100
AcDbVertex
100
AcDb2dVertex
 10
213.4870555341131
 20
370.4565058876924
 30
0.0
  0
VERTEX
  5
1DF
330
1DD
100
AcDbEntity
  8
0
 62
     7
420
 16777215
370
     9
100
AcDbVertex
100
AcDb2dVertex
 10
213.3716542889615
 20
370.1369801994206
 30
0.0
  0
VERTEX
  5
1E0
330
1DD
100
AcDbEntity
  8
0
 62
     7
420
 16777215
370
     9
100
AcDbVertex
100
AcDb2dVertex
 10
212.9870490808607
 20
369.9565058881763
 30
0.0
  0
VERTEX
  5
1E1
330
1DD
100
AcDbEntity
  8
0
 62
     7
420
 16777215
370
     9
100
AcDbVertex
100
AcDb2dVertex
 10
199.9870555336329
 20
369.9565059006618
 30
0.0
  0
VERTEX
  5
1E2
330
1DD
100
AcDbEntity
  8
0
 62
     7
420
 16777215
370
     9
100
AcDbVertex
100
AcDb2dVertex
 10
199.6675298453629
 20
370.0719071458134
 30
0.0
  0
VERTEX
  5
1E3
330
1DD
100
AcDbEntity
  8
0
 62
     7
420
 16777215
370
     9
100
AcDbVertex
100
AcDb2dVertex
 10
199.4870555341131
 20
370.456505901142
 30
0.0
  0
VERTEX
  5
1E4
330
1DD
100
AcDbEntity
  8
0
 62
     7
420
 16777215
370
     9
100
AcDbVertex
100
AcDb2dVertex
 10
199.4870555466005
 20
383.4565059011456
 30
0.0
  0
VERTEX
  5
1E5
330
1DD
100
AcDbEntity
  8
0
 62
     7
420
 16777215
370
     9
100
AcDbVertex
100
AcDb2dVertex
 10
199.602456791752
 20
383.7760315894138
 30
0.0
  0
VERTEX
  5
1E6
330
1DD
100
AcDbEntity
  8
0
 62
     7
420
 16777215
370
     9
100
AcDbVertex
100
AcDb2dVertex
 10
199.9870376502186
 20
383.9565059006618
 30
0.0
  0
VERTEX
  5
1E7
330
1DD
100
AcDbEntity
  8
0
 62
     7
420
 16777215
370
     9
100
AcDbVertex
100
AcDb2dVertex
 10
212.9870555470807
 20
383.9565058881763
 30
0.0
  0
VERTEX
  5
1E8
330
1DD
100
AcDbEntity
  8
0
 62
     7
420
 16777215
370
     9
100
AcDbVertex
100
AcDb2dVertex
 10
213.3065812353525
 20
383.8411046430247
 30
0.0
  0
VERTEX
  5
1E9
330
1DD
100
AcDbEntity
  8
0
 62
     7
420
 16777215
370
     9
100
AcDbVertex
100
AcDb2dVertex
 10
213.4870555466005
 20
383.4565058876924
 30
0.0
  0
VERTEX
  5
1EA
330
1DD
100
AcDbEntity
  8
0
 62
     7
420
 16777215
370
     9
100
AcDbVertex
100
AcDb2dVertex
 10
213.4870555341131
 20
370.4565058876924
 30
0.0
  0
SEQEND
  5
1EB
330
1DD
100
AcDbEntity
  8
0
 62
     7
420
 16777215
370
     9
  0
ENDBLK
  5
1DC
330
1D9
100
AcDbEntity
  8
0
100
AcDbBlockEnd
  0
BLOCK
  5
1EE
330
1EC
100
AcDbEntity
  8
0
100
AcDbBlockBegin
  2
block 26
 70
     0
 10
0.0
 20
0.0
 30
0.0
  3
block 26
  1

  0
POLYLINE
  5
1F0
330
1EC
100
AcDbEntity
  8
0
 62
     7
420
 16777215
370
     9
100
AcDb2dPolyline
 66
     1
 10
0.0
 20
0.0
 30
0.0
  0
VERTEX
  5
1F1
330
1F0
100
AcDbEntity
  8
0
 62
     7
420
 16777215
370
     9
100
AcDbVertex
100
AcDb2dVertex
 10
167.5928055321583
 20
368.4208370841679
 30
0.0
  0
VERTEX
  5
1F2
330
1F0
100
AcDbEntity
  8
0
 62
     7
420
 16777215
370
     9
100
AcDbVertex
100
AcDb2dVertex
 10
167.4774042870067
 20
368.1013113958998
 30
0.0
  0
VERTEX
  5
1F3
330
1F0
100
AcDbEntity
  8
0
 62
     7
420
 16777215
370
     9
100
AcDbVertex
100
AcDb2dVertex
 10
167.0927839040396
 20
367.9208370846482
 30
0.0
  0
VERTEX
  5
1F4
330
1F0
100
AcDbEntity
  8
0
 62
     7
420
 16777215
370
     9
100
AcDbVertex
100
AcDb2dVertex
 10
160.0928055317127
 20
367.9565059389879
 30
0.0
  0
VERTEX
  5
1F5
330
1F0
100
AcDbEntity
  8
0
 62
     7
420
 16777215
370
     9
100
AcDbVertex
100
AcDb2dVertex
 10
159.7732798434408
 20
368.0719071841395
 30
0.0
  0
VERTEX
  5
1F6
330
1F0
100
AcDbEntity
  8
0
 62
     7
420
 16777215
370
     9
100
AcDbVertex
100
AcDb2dVertex
 10
159.5928055321929
 20
368.4565059394718
 30
0.0
  0
VERTEX
  5
1F7
330
1F0
100
AcDbEntity
  8
0
 62
     7
420
 16777215
370
     9
100
AcDbVertex
100
AcDb2dVertex
 10
159.5928055456407
 20
382.4565059394718
 30
0.0
  0
VERTEX
  5
1F8
330
1F0
100
AcDbEntity
  8
0
 62
     7
420
 16777215
370
     9
100
AcDbVertex
100
AcDb2dVertex
 10
159.7082067907922
 20
382.7760316277399
 30
0.0
  0
VERTEX
  5
1F9
330
1F0
100
AcDbEntity
  8
0
 62
     7
420
 16777215
370
     9
100
AcDbVertex
100
AcDb2dVertex
 10
160.0926952267728
 20
382.9565059389915
 30
0.0
  0
VERTEX
  5
1FA
330
1F0
100
AcDbEntity
  8
0
 62
     7
420
 16777215
370
     9
100
AcDbVertex
100
AcDb2dVertex
 10
167.0928055461227
 20
382.9565059322613
 30
0.0
  0
VERTEX
  5
1FB
330
1F0
100
AcDbEntity
  8
0
 62
     7
420
 16777215
370
     9
100
AcDbVertex
100
AcDb2dVertex
 10
167.4123312343927
 20
382.841104687117
 30
0.0
  0
VERTEX
  5
1FC
330
1F0
100
AcDbEntity
  8
0
 62
     7
420
 16777215
370
     9
100
AcDbVertex
100
AcDb2dVertex
 10
167.5928055456407
 20
382.4565059317847
 30
0.0
  0
VERTEX
  5
1FD
330
1F0
100
AcDbEntity
  8
0
 62
     7
420
 16777215
370
     9
100
AcDbVertex
100
AcDb2dVertex
 10
167.5928055321583
 20
368.4208370841679
 30
0.0
  0
SEQEND
  5
1FE
330
1F0
100
AcDbEntity
  8
0
 62
     7
420
 16777215
370
     9
  0
ENDBLK
  5
1EF
330
1EC
100
AcDbEntity
  8
0
100
AcDbBlockEnd
  0
BLOCK
  5
201
330
1FF
100
AcDbEntity
  8
0
100
AcDbBlockBegin
  2
block 27
 70
     0
 10
0.0
 20
0.0
 30
0.0
  3
block 27
  1

  0
POLYLINE
  5
203
330
1FF
100
AcDbEntity
  8
0
 62
     7
420
 16777215
370
     9
100
AcDb2dPolyline
 66
     1
 10
0.0
 20
0.0
 30
0.0
  0
VERTEX
  5
204
330
203
100
AcDbEntity
  8
0
 62
     7
420
 16777215
370
     9
100
AcDbVertex
100
AcDb2dVertex
 10
191.4688055321585
 20
368.4208370612305
 30
0.0
  0
VERTEX
  5
205
330
203
100
AcDbEntity
  8
0
 62
     7
420
 16777215
370
     9
100
AcDbVertex
100
AcDb2dVertex
 10
191.3534042870069
 20
368.1013113729587
 30
0.0
  0
VERTEX
  5
206
330
203
100
AcDbEntity
  8
0
 62
     7
420
 16777215
370
     9
100
AcDbVertex
100
AcDb2dVertex
 10
190.9687356710074
 20
367.9208370617071
 30
0.0
  0
VERTEX
  5
207
330
203
100
AcDbEntity
  8
0
 62
     7
420
 16777215
370
     9
100
AcDbVertex
100
AcDb2dVertex
 10
183.9688055317129
 20
367.9565059160504
 30
0.0
  0
VERTEX
  5
208
330
203
100
AcDbEntity
  8
0
 62
     7
420
 16777215
370
     9
100
AcDbVertex
100
AcDb2dVertex
 10
183.649279843441
 20
368.071907161202
 30
0.0
  0
VERTEX
  5
209
330
203
100
AcDbEntity
  8
0
 62
     7
420
 16777215
370
     9
100
AcDbVertex
100
AcDb2dVertex
 10
183.4688024287243
 20
368.4565059165307
 30
0.0
  0
VERTEX
  5
20A
330
203
100
AcDbEntity
  8
0
 62
     7
420
 16777215
370
     9
100
AcDbVertex
100
AcDb2dVertex
 10
183.4688055456409
 20
382.4565059165307
 30
0.0
  0
VERTEX
  5
20B
330
203
100
AcDbEntity
  8
0
 62
     7
420
 16777215
370
     9
100
AcDbVertex
100
AcDb2dVertex
 10
183.5842067907906
 20
382.7760316048025
 30
0.0
  0
VERTEX
  5
20C
330
203
100
AcDbEntity
  8
0
 62
     7
420
 16777215
370
     9
100
AcDbVertex
100
AcDb2dVertex
 10
183.9687662030301
 20
382.9565059160541
 30
0.0
  0
VERTEX
  5
20D
330
203
100
AcDbEntity
  8
0
 62
     7
420
 16777215
370
     9
100
AcDbVertex
100
AcDb2dVertex
 10
190.9688055461229
 20
382.9565059093238
 30
0.0
  0
VERTEX
  5
20E
330
203
100
AcDbEntity
  8
0
 62
     7
420
 16777215
370
     9
100
AcDbVertex
100
AcDb2dVertex
 10
191.2883312343929
 20
382.8411046641795
 30
0.0
  0
VERTEX
  5
20F
330
203
100
AcDbEntity
  8
0
 62
     7
420
 16777215
370
     9
100
AcDbVertex
100
AcDb2dVertex
 10
191.4688055456409
 20
382.4565059088509
 30
0.0
  0
VERTEX
  5
210
330
203
100
AcDbEntity
  8
0
 62
     7
420
 16777215
370
     9
100
AcDbVertex
100
AcDb2dVertex
 10
191.4688055321585
 20
368.4208370612305
 30
0.0
  0
SEQEND
  5
211
330
203
100
AcDbEntity
  8
0
 62
     7
420
 16777215
370
     9
  0
ENDBLK
  5
202
330
1FF
100
AcDbEntity
  8
0
100
AcDbBlockEnd
  0
BLOCK
  5
214
330
212
100
AcDbEntity
  8
0
100
AcDbBlockBegin
  2
block 28
 70
     0
 10
0.0
 20
0.0
 30
0.0
  3
block 28
  1

  0
POLYLINE
  5
216
330
212
100
AcDbEntity
  8
0
 62
     7
420
 16777215
370
     9
100
AcDb2dPolyline
 66
     1
 10
0.0
 20
0.0
 30
0.0
  0
VERTEX
  5
217
330
216
100
AcDbEntity
  8
0
 62
     7
420
 16777215
370
     9
100
AcDbVertex
100
AcDb2dVertex
 10
182.5308055341138
 20
370.4565059174329
 30
0.0
  0
VERTEX
  5
218
330
216
100
AcDbEntity
  8
0
 62
     7
420
 16777215
370
     9
100
AcDbVertex
100
AcDb2dVertex
 10
182.4154042889622
 20
370.1369802291647
 30
0.0
  0
VERTEX
  5
219
330
216
100
AcDbEntity
  8
0
 62
     7
420
 16777215
370
     9
100
AcDbVertex
100
AcDb2dVertex
 10
182.030780770312
 20
369.9565059179131
 30
0.0
  0
VERTEX
  5
21A
330
216
100
AcDbEntity
  8
0
 62
     7
420
 16777215
370
     9
100
AcDbVertex
100
AcDb2dVertex
 10
169.0308055336336
 20
369.9565059304059
 30
0.0
  0
VERTEX
  5
21B
330
216
100
AcDbEntity
  8
0
 62
     7
420
 16777215
370
     9
100
AcDbVertex
100
AcDb2dVertex
 10
168.7112798453636
 20
370.0719071755539
 30
0.0
  0
VERTEX
  5
21C
330
216
100
AcDbEntity
  8
0
 62
     7
420
 16777215
370
     9
100
AcDbVertex
100
AcDb2dVertex
 10
168.5308055341138
 20
370.4565059308861
 30
0.0
  0
VERTEX
  5
21D
330
216
100
AcDbEntity
  8
0
 62
     7
420
 16777215
370
     9
100
AcDbVertex
100
AcDb2dVertex
 10
168.5308055466012
 20
383.4565059308825
 30
0.0
  0
VERTEX
  5
21E
330
216
100
AcDbEntity
  8
0
 62
     7
420
 16777215
370
     9
100
AcDbVertex
100
AcDb2dVertex
 10
168.6462067917528
 20
383.7760316191507
 30
0.0
  0
VERTEX
  5
21F
330
216
100
AcDbEntity
  8
0
 62
     7
420
 16777215
370
     9
100
AcDbVertex
100
AcDb2dVertex
 10
169.0307693396717
 20
383.9565059304059
 30
0.0
  0
VERTEX
  5
220
330
216
100
AcDbEntity
  8
0
 62
     7
420
 16777215
370
     9
100
AcDbVertex
100
AcDb2dVertex
 10
182.0308055470832
 20
383.9565059179131
 30
0.0
  0
VERTEX
  5
221
330
216
100
AcDbEntity
  8
0
 62
     7
420
 16777215
370
     9
100
AcDbVertex
100
AcDb2dVertex
 10
182.3503312353532
 20
383.8411046727651
 30
0.0
  0
VERTEX
  5
222
330
216
100
AcDbEntity
  8
0
 62
     7
420
 16777215
370
     9
100
AcDbVertex
100
AcDb2dVertex
 10
182.530805546603
 20
383.4565059174329
 30
0.0
  0
VERTEX
  5
223
330
216
100
AcDbEntity
  8
0
 62
     7
420
 16777215
370
     9
100
AcDbVertex
100
AcDb2dVertex
 10
182.5308055341138
 20
370.4565059174329
 30
0.0
  0
SEQEND
  5
224
330
216
100
AcDbEntity
  8
0
 62
     7
420
 16777215
370
     9
  0
ENDBLK
  5
215
330
212
100
AcDbEntity
  8
0
100
AcDbBlockEnd
  0
BLOCK
  5
227
330
225
100
AcDbEntity
  8
0
100
AcDbBlockBegin
  2
block 29
 70
     0
 10
0.0
 20
0.0
 30
0.0
  3
block 29
  1

  0
POLYLINE
  5
229
330
225
100
AcDbEntity
  8
0
 62
     7
420
 16777215
370
     9
100
AcDb2dPolyline
 66
     1
 10
0.0
 20
0.0
 30
0.0
  0
VERTEX
  5
22A
330
229
100
AcDbEntity
  8
0
 62
     7
420
 16777215
370
     9
100
AcDbVertex
100
AcDb2dVertex
 10
456.3745555524147
 20
389.5065056543408
 30
0.0
  0
VERTEX
  5
22B
330
229
100
AcDbEntity
  8
0
 62
     7
420
 16777215
370
     9
100
AcDbVertex
100
AcDb2dVertex
 10
456.2591543072667
 20
389.1869799660726
 30
0.0
  0
VERTEX
  5
22C
330
229
100
AcDbEntity
  8
0
 62
     7
420
 16777215
370
     9
100
AcDbVertex
100
AcDb2dVertex
 10
455.8745460474056
 20
389.0065056548247
 30
0.0
  0
VERTEX
  5
22D
330
229
100
AcDbEntity
  8
0
 62
     7
420
 16777215
370
     9
100
AcDbVertex
100
AcDb2dVertex
 10
442.8745555519345
 20
389.0065056673138
 30
0.0
  0
VERTEX
  5
22E
330
229
100
AcDbEntity
  8
0
 62
     7
420
 16777215
370
     9
100
AcDbVertex
100
AcDb2dVertex
 10
442.5550298636645
 20
389.1219069124618
 30
0.0
  0
VERTEX
  5
22F
330
229
100
AcDbEntity
  8
0
 62
     7
420
 16777215
370
     9
100
AcDbVertex
100
AcDb2dVertex
 10
442.3745555524147
 20
389.5065056677904
 30
0.0
  0
VERTEX
  5
230
330
229
100
AcDbEntity
  8
0
 62
     7
420
 16777215
370
     9
100
AcDbVertex
100
AcDb2dVertex
 10
442.3745555649039
 20
402.5065056677968
 30
0.0
  0
VERTEX
  5
231
330
229
100
AcDbEntity
  8
0
 62
     7
420
 16777215
370
     9
100
AcDbVertex
100
AcDb2dVertex
 10
442.4899568100536
 20
402.826031356065
 30
0.0
  0
VERTEX
  5
232
330
229
100
AcDbEntity
  8
0
 62
     7
420
 16777215
370
     9
100
AcDbVertex
100
AcDb2dVertex
 10
442.8745346167634
 20
403.0065056673102
 30
0.0
  0
VERTEX
  5
233
330
229
100
AcDbEntity
  8
0
 62
     7
420
 16777215
370
     9
100
AcDbVertex
100
AcDb2dVertex
 10
455.8745555653841
 20
403.0065056548247
 30
0.0
  0
VERTEX
  5
234
330
229
100
AcDbEntity
  8
0
 62
     7
420
 16777215
370
     9
100
AcDbVertex
100
AcDb2dVertex
 10
456.1940812536541
 20
402.891104409674
 30
0.0
  0
VERTEX
  5
235
330
229
100
AcDbEntity
  8
0
 62
     7
420
 16777215
370
     9
100
AcDbVertex
100
AcDb2dVertex
 10
456.3745555649039
 20
402.5065056543444
 30
0.0
  0
VERTEX
  5
236
330
229
100
AcDbEntity
  8
0
 62
     7
420
 16777215
370
     9
100
AcDbVertex
100
AcDb2dVertex
 10
456.3745555524147
 20
389.5065056543408
 30
0.0
  0
SEQEND
  5
237
330
229
100
AcDbEntity
  8
0
 62
     7
420
 16777215
370
     9
  0
ENDBLK
  5
228
330
225
100
AcDbEntity
  8
0
100
AcDbBlockEnd
  0
BLOCK
  5
23A
330
238
100
AcDbEntity
  8
0
100
AcDbBlockBegin
  2
block 30
 70
     0
 10
0.0
 20
0.0
 30
0.0
  3
block 30
  1

  0
POLYLINE
  5
23C
330
238
100
AcDbEntity
  8
0
 62
     7
420
 16777215
370
     9
100
AcDb2dPolyline
 66
     1
 10
0.0
 20
0.0
 30
0.0
  0
VERTEX
  5
23D
330
23C
100
AcDbEntity
  8
0
 62
     7
420
 16777215
370
     9
100
AcDbVertex
100
AcDb2dVertex
 10
410.4803055533393
 20
387.3730697256851
 30
0.0
  0
VERTEX
  5
23E
330
23C
100
AcDbEntity
  8
0
 62
     7
420
 16777215
370
     9
100
AcDbVertex
100
AcDb2dVertex
 10
410.3649043081896
 20
386.9854569117051
 30
0.0
  0
VERTEX
  5
23F
330
23C
100
AcDbEntity
  8
0
 62
     7
420
 16777215
370
     9
100
AcDbVertex
100
AcDb2dVertex
 10
409.9801616641744
 20
386.7665256701675
 30
0.0
  0
VERTEX
  5
240
330
23C
100
AcDbEntity
  8
0
 62
     7
420
 16777215
370
     9
100
AcDbVertex
100
AcDb2dVertex
 10
402.9803055528937
 20
386.8097951333511
 30
0.0
  0
VERTEX
  5
241
330
23C
100
AcDbEntity
  8
0
 62
     7
420
 16777215
370
     9
100
AcDbVertex
100
AcDb2dVertex
 10
402.6607798646255
 20
386.9497870119776
 30
0.0
  0
VERTEX
  5
242
330
23C
100
AcDbEntity
  8
0
 62
     7
420
 16777215
370
     9
100
AcDbVertex
100
AcDb2dVertex
 10
402.4803055533757
 20
387.4163391900402
 30
0.0
  0
VERTEX
  5
243
330
23C
100
AcDbEntity
  8
0
 62
     7
420
 16777215
370
     9
100
AcDbVertex
100
AcDb2dVertex
 10
402.4803055668235
 20
404.3995727608617
 30
0.0
  0
VERTEX
  5
244
330
23C
100
AcDbEntity
  8
0
 62
     7
420
 16777215
370
     9
100
AcDbVertex
100
AcDb2dVertex
 10
402.5957068119751
 20
404.7871855748417
 30
0.0
  0
VERTEX
  5
245
330
23C
100
AcDbEntity
  8
0
 62
     7
420
 16777215
370
     9
100
AcDbVertex
100
AcDb2dVertex
 10
402.9801921961989
 20
405.0061168163775
 30
0.0
  0
VERTEX
  5
246
330
23C
100
AcDbEntity
  8
0
 62
     7
420
 16777215
370
     9
100
AcDbVertex
100
AcDb2dVertex
 10
409.9803055673055
 20
405.0061168082193
 30
0.0
  0
VERTEX
  5
247
330
23C
100
AcDbEntity
  8
0
 62
     7
420
 16777215
370
     9
100
AcDbVertex
100
AcDb2dVertex
 10
410.2998312555756
 20
404.8661249295938
 30
0.0
  0
VERTEX
  5
248
330
23C
100
AcDbEntity
  8
0
 62
     7
420
 16777215
370
     9
100
AcDbVertex
100
AcDb2dVertex
 10
410.4803055668235
 20
404.3995727515357
 30
0.0
  0
VERTEX
  5
249
330
23C
100
AcDbEntity
  8
0
 62
     7
420
 16777215
370
     9
100
AcDbVertex
100
AcDb2dVertex
 10
410.4803055533393
 20
387.3730697256851
 30
0.0
  0
SEQEND
  5
24A
330
23C
100
AcDbEntity
  8
0
 62
     7
420
 16777215
370
     9
  0
ENDBLK
  5
23B
330
238
100
AcDbEntity
  8
0
100
AcDbBlockEnd
  0
BLOCK
  5
24D
330
24B
100
AcDbEntity
  8
0
100
AcDbBlockBegin
  2
block 31
 70
     0
 10
0.0
 20
0.0
 30
0.0
  3
block 31
  1

  0
POLYLINE
  5
24F
330
24B
100
AcDbEntity
  8
0
 62
     7
420
 16777215
370
     9
100
AcDb2dPolyline
 66
     1
 10
0.0
 20
0.0
 30
0.0
  0
VERTEX
  5
250
330
24F
100
AcDbEntity
  8
0
 62
     7
420
 16777215
370
     9
100
AcDbVertex
100
AcDb2dVertex
 10
434.3563055533396
 20
387.3730697249193
 30
0.0
  0
VERTEX
  5
251
330
24F
100
AcDbEntity
  8
0
 62
     7
420
 16777215
370
     9
100
AcDbVertex
100
AcDb2dVertex
 10
434.2409043081898
 20
386.985456911425
 30
0.0
  0
VERTEX
  5
252
330
24F
100
AcDbEntity
  8
0
 62
     7
420
 16777215
370
     9
100
AcDbVertex
100
AcDb2dVertex
 10
433.8561134311421
 20
386.7665256701675
 30
0.0
  0
VERTEX
  5
253
330
24F
100
AcDbEntity
  8
0
 62
     7
420
 16777215
370
     9
100
AcDbVertex
100
AcDb2dVertex
 10
426.8563055528939
 20
386.8097951332929
 30
0.0
  0
VERTEX
  5
254
330
24F
100
AcDbEntity
  8
0
 62
     7
420
 16777215
370
     9
100
AcDbVertex
100
AcDb2dVertex
 10
426.5367798646257
 20
386.949787011743
 30
0.0
  0
VERTEX
  5
255
330
24F
100
AcDbEntity
  8
0
 62
     7
420
 16777215
370
     9
100
AcDbVertex
100
AcDb2dVertex
 10
426.3563055533759
 20
387.4163391892143
 30
0.0
  0
VERTEX
  5
256
330
24F
100
AcDbEntity
  8
0
 62
     7
420
 16777215
370
     9
100
AcDbVertex
100
AcDb2dVertex
 10
426.3563055668274
 20
404.3995727386864
 30
0.0
  0
VERTEX
  5
257
330
24F
100
AcDbEntity
  8
0
 62
     7
420
 16777215
370
     9
100
AcDbVertex
100
AcDb2dVertex
 10
426.4717068119753
 20
404.7871855521826
 30
0.0
  0
VERTEX
  5
258
330
24F
100
AcDbEntity
  8
0
 62
     7
420
 16777215
370
     9
100
AcDbVertex
100
AcDb2dVertex
 10
426.8561439631667
 20
405.0061167934391
 30
0.0
  0
VERTEX
  5
259
330
24F
100
AcDbEntity
  8
0
 62
     7
420
 16777215
370
     9
100
AcDbVertex
100
AcDb2dVertex
 10
433.8563055673058
 20
405.0061167852809
 30
0.0
  0
VERTEX
  5
25A
330
24F
100
AcDbEntity
  8
0
 62
     7
420
 16777215
370
     9
100
AcDbVertex
100
AcDb2dVertex
 10
434.1758312555758
 20
404.8661249068336
 30
0.0
  0
VERTEX
  5
25B
330
24F
100
AcDbEntity
  8
0
 62
     7
420
 16777215
370
     9
100
AcDbVertex
100
AcDb2dVertex
 10
434.3563055668274
 20
404.3995727293604
 30
0.0
  0
VERTEX
  5
25C
330
24F
100
AcDbEntity
  8
0
 62
     7
420
 16777215
370
     9
100
AcDbVertex
100
AcDb2dVertex
 10
434.3563055533396
 20
387.3730697249193
 30
0.0
  0
SEQEND
  5
25D
330
24F
100
AcDbEntity
  8
0
 62
     7
420
 16777215
370
     9
  0
ENDBLK
  5
24E
330
24B
100
AcDbEntity
  8
0
100
AcDbBlockEnd
  0
BLOCK
  5
260
330
25E
100
AcDbEntity
  8
0
100
AcDbBlockBegin
  2
block 32
 70
     0
 10
0.0
 20
0.0
 30
0.0
  3
block 32
  1

  0
POLYLINE
  5
262
330
25E
100
AcDbEntity
  8
0
 62
     7
420
 16777215
370
     9
100
AcDb2dPolyline
 66
     1
 10
0.0
 20
0.0
 30
0.0
  0
VERTEX
  5
263
330
262
100
AcDbEntity
  8
0
 62
     7
420
 16777215
370
     9
100
AcDbVertex
100
AcDb2dVertex
 10
425.4183055524154
 20
389.5065056840849
 30
0.0
  0
VERTEX
  5
264
330
262
100
AcDbEntity
  8
0
 62
     7
420
 16777215
370
     9
100
AcDbVertex
100
AcDb2dVertex
 10
425.3029043072638
 20
389.1869799958131
 30
0.0
  0
VERTEX
  5
265
330
262
100
AcDbEntity
  8
0
 62
     7
420
 16777215
370
     9
100
AcDbVertex
100
AcDb2dVertex
 10
424.9182777368587
 20
389.0065056845651
 30
0.0
  0
VERTEX
  5
266
330
262
100
AcDbEntity
  8
0
 62
     7
420
 16777215
370
     9
100
AcDbVertex
100
AcDb2dVertex
 10
411.9183055519352
 20
389.0065056970543
 30
0.0
  0
VERTEX
  5
267
330
262
100
AcDbEntity
  8
0
 62
     7
420
 16777215
370
     9
100
AcDbVertex
100
AcDb2dVertex
 10
411.5987798636652
 20
389.1219069422059
 30
0.0
  0
VERTEX
  5
268
330
262
100
AcDbEntity
  8
0
 62
     7
420
 16777215
370
     9
100
AcDbVertex
100
AcDb2dVertex
 10
411.4183025328712
 20
389.5065056975309
 30
0.0
  0
VERTEX
  5
269
330
262
100
AcDbEntity
  8
0
 62
     7
420
 16777215
370
     9
100
AcDbVertex
100
AcDb2dVertex
 10
411.4183055649046
 20
402.5065056975318
 30
0.0
  0
VERTEX
  5
26A
330
262
100
AcDbEntity
  8
0
 62
     7
420
 16777215
370
     9
100
AcDbVertex
100
AcDb2dVertex
 10
411.5337068100525
 20
402.8260313858027
 30
0.0
  0
VERTEX
  5
26B
330
262
100
AcDbEntity
  8
0
 62
     7
420
 16777215
370
     9
100
AcDbVertex
100
AcDb2dVertex
 10
411.9182663062165
 20
403.0065056970543
 30
0.0
  0
VERTEX
  5
26C
330
262
100
AcDbEntity
  8
0
 62
     7
420
 16777215
370
     9
100
AcDbVertex
100
AcDb2dVertex
 10
424.9183055653848
 20
403.0065056845633
 30
0.0
  0
VERTEX
  5
26D
330
262
100
AcDbEntity
  8
0
 62
     7
420
 16777215
370
     9
100
AcDbVertex
100
AcDb2dVertex
 10
425.2378312536548
 20
402.8911044394181
 30
0.0
  0
VERTEX
  5
26E
330
262
100
AcDbEntity
  8
0
 62
     7
420
 16777215
370
     9
100
AcDbVertex
100
AcDb2dVertex
 10
425.4183055649046
 20
402.5065056840886
 30
0.0
  0
VERTEX
  5
26F
330
262
100
AcDbEntity
  8
0
 62
     7
420
 16777215
370
     9
100
AcDbVertex
100
AcDb2dVertex
 10
425.4183055524154
 20
389.5065056840849
 30
0.0
  0
SEQEND
  5
270
330
262
100
AcDbEntity
  8
0
 62
     7
420
 16777215
370
     9
  0
ENDBLK
  5
261
330
25E
100
AcDbEntity
  8
0
100
AcDbBlockEnd
  0
BLOCK
  5
273
330
271
100
AcDbEntity
  8
0
100
AcDbBlockBegin
  2
block 33
 70
     0
 10
0.0
 20
0.0
 30
0.0
  3
block 33
  1

  0
POLYLINE
  5
275
330
271
100
AcDbEntity
  8
0
 62
     7
420
 16777215
370
     9
100
AcDb2dPolyline
 66
     1
 10
0.0
 20
0.0
 30
0.0
  0
VERTEX
  5
276
330
275
100
AcDbEntity
  8
0
 62
     7
420
 16777215
370
     9
100
AcDbVertex
100
AcDb2dVertex
 10
394.4620555524161
 20
389.5065057138254
 30
0.0
  0
VERTEX
  5
277
330
275
100
AcDbEntity
  8
0
 62
     7
420
 16777215
370
     9
100
AcDbVertex
100
AcDb2dVertex
 10
394.3466543072645
 20
389.1869800255536
 30
0.0
  0
VERTEX
  5
278
330
275
100
AcDbEntity
  8
0
 62
     7
420
 16777215
370
     9
100
AcDbVertex
100
AcDb2dVertex
 10
393.9620094263119
 20
389.0065057143092
 30
0.0
  0
VERTEX
  5
279
330
275
100
AcDbEntity
  8
0
 62
     7
420
 16777215
370
     9
100
AcDbVertex
100
AcDb2dVertex
 10
380.9620555519341
 20
389.0065057267948
 30
0.0
  0
VERTEX
  5
27A
330
275
100
AcDbEntity
  8
0
 62
     7
420
 16777215
370
     9
100
AcDbVertex
100
AcDb2dVertex
 10
380.6425298636659
 20
389.1219069719464
 30
0.0
  0
VERTEX
  5
27B
330
275
100
AcDbEntity
  8
0
 62
     7
420
 16777215
370
     9
100
AcDbVertex
100
AcDb2dVertex
 10
380.4620555524161
 20
389.506505727275
 30
0.0
  0
VERTEX
  5
27C
330
275
100
AcDbEntity
  8
0
 62
     7
420
 16777215
370
     9
100
AcDbVertex
100
AcDb2dVertex
 10
380.4620555649053
 20
402.5065057272759
 30
0.0
  0
VERTEX
  5
27D
330
275
100
AcDbEntity
  8
0
 62
     7
420
 16777215
370
     9
100
AcDbVertex
100
AcDb2dVertex
 10
380.5774568100551
 20
402.8260314155477
 30
0.0
  0
VERTEX
  5
27E
330
275
100
AcDbEntity
  8
0
 62
     7
420
 16777215
370
     9
100
AcDbVertex
100
AcDb2dVertex
 10
380.9619979956697
 20
403.006505726793
 30
0.0
  0
VERTEX
  5
27F
330
275
100
AcDbEntity
  8
0
 62
     7
420
 16777215
370
     9
100
AcDbVertex
100
AcDb2dVertex
 10
393.9620555653855
 20
403.0065057143056
 30
0.0
  0
VERTEX
  5
280
330
275
100
AcDbEntity
  8
0
 62
     7
420
 16777215
370
     9
100
AcDbVertex
100
AcDb2dVertex
 10
394.2815812536555
 20
402.8911044691567
 30
0.0
  0
VERTEX
  5
281
330
275
100
AcDbEntity
  8
0
 62
     7
420
 16777215
370
     9
100
AcDbVertex
100
AcDb2dVertex
 10
394.4620555649053
 20
402.5065057138254
 30
0.0
  0
VERTEX
  5
282
330
275
100
AcDbEntity
  8
0
 62
     7
420
 16777215
370
     9
100
AcDbVertex
100
AcDb2dVertex
 10
394.4620555524161
 20
389.5065057138254
 30
0.0
  0
SEQEND
  5
283
330
275
100
AcDbEntity
  8
0
 62
     7
420
 16777215
370
     9
  0
ENDBLK
  5
274
330
271
100
AcDbEntity
  8
0
100
AcDbBlockEnd
  0
BLOCK
  5
286
330
284
100
AcDbEntity
  8
0
100
AcDbBlockBegin
  2
block 34
 70
     0
 10
0.0
 20
0.0
 30
0.0
  3
block 34
  1

  0
POLYLINE
  5
288
330
284
100
AcDbEntity
  8
0
 62
     7
420
 16777215
370
     9
100
AcDb2dPolyline
 66
     1
 10
0.0
 20
0.0
 30
0.0
  0
VERTEX
  5
289
330
288
100
AcDbEntity
  8
0
 62
     7
420
 16777215
370
     9
100
AcDbVertex
100
AcDb2dVertex
 10
375.4120555524169
 20
389.5065057321281
 30
0.0
  0
VERTEX
  5
28A
330
288
100
AcDbEntity
  8
0
 62
     7
420
 16777215
370
     9
100
AcDbVertex
100
AcDb2dVertex
 10
375.2966543072653
 20
389.1869800438562
 30
0.0
  0
VERTEX
  5
28B
330
288
100
AcDbEntity
  8
0
 62
     7
420
 16777215
370
     9
100
AcDbVertex
100
AcDb2dVertex
 10
374.9118881189388
 20
389.0065057326046
 30
0.0
  0
VERTEX
  5
28C
330
288
100
AcDbEntity
  8
0
 62
     7
420
 16777215
370
     9
100
AcDbVertex
100
AcDb2dVertex
 10
361.912055551933
 20
389.0065057450938
 30
0.0
  0
VERTEX
  5
28D
330
288
100
AcDbEntity
  8
0
 62
     7
420
 16777215
370
     9
100
AcDbVertex
100
AcDb2dVertex
 10
361.5925298636648
 20
389.121906990249
 30
0.0
  0
VERTEX
  5
28E
330
288
100
AcDbEntity
  8
0
 62
     7
420
 16777215
370
     9
100
AcDbVertex
100
AcDb2dVertex
 10
361.4120555524169
 20
389.5065057455777
 30
0.0
  0
VERTEX
  5
28F
330
288
100
AcDbEntity
  8
0
 62
     7
420
 16777215
370
     9
100
AcDbVertex
100
AcDb2dVertex
 10
361.412055564906
 20
402.5065057455759
 30
0.0
  0
VERTEX
  5
290
330
288
100
AcDbEntity
  8
0
 62
     7
420
 16777215
370
     9
100
AcDbVertex
100
AcDb2dVertex
 10
361.527456810054
 20
402.8260314338459
 30
0.0
  0
VERTEX
  5
291
330
288
100
AcDbEntity
  8
0
 62
     7
420
 16777215
370
     9
100
AcDbVertex
100
AcDb2dVertex
 10
361.9118766882966
 20
403.0065057450965
 30
0.0
  0
VERTEX
  5
292
330
288
100
AcDbEntity
  8
0
 62
     7
420
 16777215
370
     9
100
AcDbVertex
100
AcDb2dVertex
 10
374.9120555653863
 20
403.0065057326092
 30
0.0
  0
VERTEX
  5
293
330
288
100
AcDbEntity
  8
0
 62
     7
420
 16777215
370
     9
100
AcDbVertex
100
AcDb2dVertex
 10
375.2315812536544
 20
402.8911044874576
 30
0.0
  0
VERTEX
  5
294
330
288
100
AcDbEntity
  8
0
 62
     7
420
 16777215
370
     9
100
AcDbVertex
100
AcDb2dVertex
 10
375.412055564906
 20
402.5065057321281
 30
0.0
  0
VERTEX
  5
295
330
288
100
AcDbEntity
  8
0
 62
     7
420
 16777215
370
     9
100
AcDbVertex
100
AcDb2dVertex
 10
375.4120555524169
 20
389.5065057321281
 30
0.0
  0
SEQEND
  5
296
330
288
100
AcDbEntity
  8
0
 62
     7
420
 16777215
370
     9
  0
ENDBLK
  5
287
330
284
100
AcDbEntity
  8
0
100
AcDbBlockEnd
  0
BLOCK
  5
299
330
297
100
AcDbEntity
  8
0
100
AcDbBlockBegin
  2
block 35
 70
     0
 10
0.0
 20
0.0
 30
0.0
  3
block 35
  1

  0
POLYLINE
  5
29B
330
297
100
AcDbEntity
  8
0
 62
     7
420
 16777215
370
     9
100
AcDb2dPolyline
 66
     1
 10
0.0
 20
0.0
 30
0.0
  0
VERTEX
  5
29C
330
29B
100
AcDbEntity
  8
0
 62
     7
420
 16777215
370
     9
100
AcDbVertex
100
AcDb2dVertex
 10
356.3620555524139
 20
389.5065057504271
 30
0.0
  0
VERTEX
  5
29D
330
29B
100
AcDbEntity
  8
0
 62
     7
420
 16777215
370
     9
100
AcDbVertex
100
AcDb2dVertex
 10
356.246654307266
 20
389.1869800621589
 30
0.0
  0
VERTEX
  5
29E
330
29B
100
AcDbEntity
  8
0
 62
     7
420
 16777215
370
     9
100
AcDbVertex
100
AcDb2dVertex
 10
355.862005230143
 20
389.0065057509073
 30
0.0
  0
VERTEX
  5
29F
330
29B
100
AcDbEntity
  8
0
 62
     7
420
 16777215
370
     9
100
AcDbVertex
100
AcDb2dVertex
 10
342.8620555519356
 20
389.0065057634001
 30
0.0
  0
VERTEX
  5
2A0
330
29B
100
AcDbEntity
  8
0
 62
     7
420
 16777215
370
     9
100
AcDbVertex
100
AcDb2dVertex
 10
342.5425298636637
 20
389.1219070085517
 30
0.0
  0
VERTEX
  5
2A1
330
29B
100
AcDbEntity
  8
0
 62
     7
420
 16777215
370
     9
100
AcDbVertex
100
AcDb2dVertex
 10
342.3620555524139
 20
389.5065057638803
 30
0.0
  0
VERTEX
  5
2A2
330
29B
100
AcDbEntity
  8
0
 62
     7
420
 16777215
370
     9
100
AcDbVertex
100
AcDb2dVertex
 10
342.3620555649031
 20
402.5065057638785
 30
0.0
  0
VERTEX
  5
2A3
330
29B
100
AcDbEntity
  8
0
 62
     7
420
 16777215
370
     9
100
AcDbVertex
100
AcDb2dVertex
 10
342.4774568100529
 20
402.8260314521485
 30
0.0
  0
VERTEX
  5
2A4
330
29B
100
AcDbEntity
  8
0
 62
     7
420
 16777215
370
     9
100
AcDbVertex
100
AcDb2dVertex
 10
342.8619937995027
 20
403.0065057633983
 30
0.0
  0
VERTEX
  5
2A5
330
29B
100
AcDbEntity
  8
0
 62
     7
420
 16777215
370
     9
100
AcDbVertex
100
AcDb2dVertex
 10
355.8620555653833
 20
403.0065057509091
 30
0.0
  0
VERTEX
  5
2A6
330
29B
100
AcDbEntity
  8
0
 62
     7
420
 16777215
370
     9
100
AcDbVertex
100
AcDb2dVertex
 10
356.1815812536552
 20
402.8911045057612
 30
0.0
  0
VERTEX
  5
2A7
330
29B
100
AcDbEntity
  8
0
 62
     7
420
 16777215
370
     9
100
AcDbVertex
100
AcDb2dVertex
 10
356.3620555649031
 20
402.5065057504316
 30
0.0
  0
VERTEX
  5
2A8
330
29B
100
AcDbEntity
  8
0
 62
     7
420
 16777215
370
     9
100
AcDbVertex
100
AcDb2dVertex
 10
356.3620555524139
 20
389.5065057504271
 30
0.0
  0
SEQEND
  5
2A9
330
29B
100
AcDbEntity
  8
0
 62
     7
420
 16777215
370
     9
  0
ENDBLK
  5
29A
330
297
100
AcDbEntity
  8
0
100
AcDbBlockEnd
  0
BLOCK
  5
2AC
330
2AA
100
AcDbEntity
  8
0
100
AcDbBlockBegin
  2
block 36
 70
     0
 10
0.0
 20
0.0
 30
0.0
  3
block 36
  1

  0
POLYLINE
  5
2AE
330
2AA
100
AcDbEntity
  8
0
 62
     7
420
 16777215
370
     9
100
AcDb2dPolyline
 66
     1
 10
0.0
 20
0.0
 30
0.0
  0
VERTEX
  5
2AF
330
2AE
100
AcDbEntity
  8
0
 62
     7
420
 16777215
370
     9
100
AcDbVertex
100
AcDb2dVertex
 10
337.3120555524147
 20
389.5065057687334
 30
0.0
  0
VERTEX
  5
2B0
330
2AE
100
AcDbEntity
  8
0
 62
     7
420
 16777215
370
     9
100
AcDbVertex
100
AcDb2dVertex
 10
337.1966543072667
 20
389.1869800804616
 30
0.0
  0
VERTEX
  5
2B1
330
2AE
100
AcDbEntity
  8
0
 62
     7
420
 16777215
370
     9
100
AcDbVertex
100
AcDb2dVertex
 10
336.8118839227718
 20
389.00650576921
 30
0.0
  0
VERTEX
  5
2B2
330
2AE
100
AcDbEntity
  8
0
 62
     7
420
 16777215
370
     9
100
AcDbVertex
100
AcDb2dVertex
 10
323.8120555519345
 20
389.0065057816992
 30
0.0
  0
VERTEX
  5
2B3
330
2AE
100
AcDbEntity
  8
0
 62
     7
420
 16777215
370
     9
100
AcDbVertex
100
AcDb2dVertex
 10
323.4925298636645
 20
389.1219070268471
 30
0.0
  0
VERTEX
  5
2B4
330
2AE
100
AcDbEntity
  8
0
 62
     7
420
 16777215
370
     9
100
AcDbVertex
100
AcDb2dVertex
 10
323.3120555524147
 20
389.5065057821794
 30
0.0
  0
VERTEX
  5
2B5
330
2AE
100
AcDbEntity
  8
0
 62
     7
420
 16777215
370
     9
100
AcDbVertex
100
AcDb2dVertex
 10
323.3120555649039
 20
402.5065057821794
 30
0.0
  0
VERTEX
  5
2B6
330
2AE
100
AcDbEntity
  8
0
 62
     7
420
 16777215
370
     9
100
AcDbVertex
100
AcDb2dVertex
 10
323.4274568100536
 20
402.8260314704521
 30
0.0
  0
VERTEX
  5
2B7
330
2AE
100
AcDbEntity
  8
0
 62
     7
420
 16777215
370
     9
100
AcDbVertex
100
AcDb2dVertex
 10
323.8118724921296
 20
403.0065057817028
 30
0.0
  0
VERTEX
  5
2B8
330
2AE
100
AcDbEntity
  8
0
 62
     7
420
 16777215
370
     9
100
AcDbVertex
100
AcDb2dVertex
 10
336.8120555653841
 20
403.0065057692118
 30
0.0
  0
VERTEX
  5
2B9
330
2AE
100
AcDbEntity
  8
0
 62
     7
420
 16777215
370
     9
100
AcDbVertex
100
AcDb2dVertex
 10
337.1315812536541
 20
402.8911045240584
 30
0.0
  0
VERTEX
  5
2BA
330
2AE
100
AcDbEntity
  8
0
 62
     7
420
 16777215
370
     9
100
AcDbVertex
100
AcDb2dVertex
 10
337.3120555649039
 20
402.5065057687289
 30
0.0
  0
VERTEX
  5
2BB
330
2AE
100
AcDbEntity
  8
0
 62
     7
420
 16777215
370
     9
100
AcDbVertex
100
AcDb2dVertex
 10
337.3120555524147
 20
389.5065057687334
 30
0.0
  0
SEQEND
  5
2BC
330
2AE
100
AcDbEntity
  8
0
 62
     7
420
 16777215
370
     9
  0
ENDBLK
  5
2AD
330
2AA
100
AcDbEntity
  8
0
100
AcDbBlockEnd
  0
BLOCK
  5
2BF
330
2BD
100
AcDbEntity
  8
0
100
AcDbBlockBegin
  2
block 37
 70
     0
 10
0.0
 20
0.0
 30
0.0
  3
block 37
  1

  0
POLYLINE
  5
2C1
330
2BD
100
AcDbEntity
  8
0
 62
     7
420
 16777215
370
     9
100
AcDb2dPolyline
 66
     1
 10
0.0
 20
0.0
 30
0.0
  0
VERTEX
  5
2C2
330
2C1
100
AcDbEntity
  8
0
 62
     7
420
 16777215
370
     9
100
AcDbVertex
100
AcDb2dVertex
 10
318.2620555524154
 20
389.5065057870324
 30
0.0
  0
VERTEX
  5
2C3
330
2C1
100
AcDbEntity
  8
0
 62
     7
420
 16777215
370
     9
100
AcDbVertex
100
AcDb2dVertex
 10
318.1466543072638
 20
389.1869800987606
 30
0.0
  0
VERTEX
  5
2C4
330
2C1
100
AcDbEntity
  8
0
 62
     7
420
 16777215
370
     9
100
AcDbVertex
100
AcDb2dVertex
 10
317.762001033976
 20
389.0065057875127
 30
0.0
  0
VERTEX
  5
2C5
330
2C1
100
AcDbEntity
  8
0
 62
     7
420
 16777215
370
     9
100
AcDbVertex
100
AcDb2dVertex
 10
304.7620555519334
 20
389.0065058000018
 30
0.0
  0
VERTEX
  5
2C6
330
2C1
100
AcDbEntity
  8
0
 62
     7
420
 16777215
370
     9
100
AcDbVertex
100
AcDb2dVertex
 10
304.4425298636652
 20
389.1219070451498
 30
0.0
  0
VERTEX
  5
2C7
330
2C1
100
AcDbEntity
  8
0
 62
     7
420
 16777215
370
     9
100
AcDbVertex
100
AcDb2dVertex
 10
304.2620555524136
 20
389.506505800482
 30
0.0
  0
VERTEX
  5
2C8
330
2C1
100
AcDbEntity
  8
0
 62
     7
420
 16777215
370
     9
100
AcDbVertex
100
AcDb2dVertex
 10
304.2620555649046
 20
402.5065058004848
 30
0.0
  0
VERTEX
  5
2C9
330
2C1
100
AcDbEntity
  8
0
 62
     7
420
 16777215
370
     9
100
AcDbVertex
100
AcDb2dVertex
 10
304.3774568100544
 20
402.826031488753
 30
0.0
  0
VERTEX
  5
2CA
330
2C1
100
AcDbEntity
  8
0
 62
     7
420
 16777215
370
     9
100
AcDbVertex
100
AcDb2dVertex
 10
304.7619896033357
 20
403.0065058000037
 30
0.0
  0
VERTEX
  5
2CB
330
2C1
100
AcDbEntity
  8
0
 62
     7
420
 16777215
370
     9
100
AcDbVertex
100
AcDb2dVertex
 10
317.7620555653848
 20
403.0065057875127
 30
0.0
  0
VERTEX
  5
2CC
330
2C1
100
AcDbEntity
  8
0
 62
     7
420
 16777215
370
     9
100
AcDbVertex
100
AcDb2dVertex
 10
318.0815812536548
 20
402.8911045423638
 30
0.0
  0
VERTEX
  5
2CD
330
2C1
100
AcDbEntity
  8
0
 62
     7
420
 16777215
370
     9
100
AcDbVertex
100
AcDb2dVertex
 10
318.2620555649046
 20
402.5065057870324
 30
0.0
  0
VERTEX
  5
2CE
330
2C1
100
AcDbEntity
  8
0
 62
     7
420
 16777215
370
     9
100
AcDbVertex
100
AcDb2dVertex
 10
318.2620555524154
 20
389.5065057870324
 30
0.0
  0
SEQEND
  5
2CF
330
2C1
100
AcDbEntity
  8
0
 62
     7
420
 16777215
370
     9
  0
ENDBLK
  5
2C0
330
2BD
100
AcDbEntity
  8
0
100
AcDbBlockEnd
  0
BLOCK
  5
2D2
330
2D0
100
AcDbEntity
  8
0
100
AcDbBlockBegin
  2
block 38
 70
     0
 10
0.0
 20
0.0
 30
0.0
  3
block 38
  1

  0
POLYLINE
  5
2D4
330
2D0
100
AcDbEntity
  8
0
 62
     7
420
 16777215
370
     9
100
AcDb2dPolyline
 66
     1
 10
0.0
 20
0.0
 30
0.0
  0
VERTEX
  5
2D5
330
2D4
100
AcDbEntity
  8
0
 62
     7
420
 16777215
370
     9
100
AcDbVertex
100
AcDb2dVertex
 10
299.2120555524143
 20
389.5065058053351
 30
0.0
  0
VERTEX
  5
2D6
330
2D4
100
AcDbEntity
  8
0
 62
     7
420
 16777215
370
     9
100
AcDbVertex
100
AcDb2dVertex
 10
299.0966543072645
 20
389.1869801170633
 30
0.0
  0
VERTEX
  5
2D7
330
2D4
100
AcDbEntity
  8
0
 62
     7
420
 16777215
370
     9
100
AcDbVertex
100
AcDb2dVertex
 10
298.711879726603
 20
389.0065058058117
 30
0.0
  0
VERTEX
  5
2D8
330
2D4
100
AcDbEntity
  8
0
 62
     7
420
 16777215
370
     9
100
AcDbVertex
100
AcDb2dVertex
 10
285.7120555519341
 20
389.0065058183045
 30
0.0
  0
VERTEX
  5
2D9
330
2D4
100
AcDbEntity
  8
0
 62
     7
420
 16777215
370
     9
100
AcDbVertex
100
AcDb2dVertex
 10
285.3925298636641
 20
389.1219070634561
 30
0.0
  0
VERTEX
  5
2DA
330
2D4
100
AcDbEntity
  8
0
 62
     7
420
 16777215
370
     9
100
AcDbVertex
100
AcDb2dVertex
 10
285.2120555524143
 20
389.5065058187847
 30
0.0
  0
VERTEX
  5
2DB
330
2D4
100
AcDbEntity
  8
0
 62
     7
420
 16777215
370
     9
100
AcDbVertex
100
AcDb2dVertex
 10
285.2120555649053
 20
402.5065058187847
 30
0.0
  0
VERTEX
  5
2DC
330
2D4
100
AcDbEntity
  8
0
 62
     7
420
 16777215
370
     9
100
AcDbVertex
100
AcDb2dVertex
 10
285.3274568100551
 20
402.8260315070575
 30
0.0
  0
VERTEX
  5
2DD
330
2D4
100
AcDbEntity
  8
0
 62
     7
420
 16777215
370
     9
100
AcDbVertex
100
AcDb2dVertex
 10
285.7118682959626
 20
403.0065058183027
 30
0.0
  0
VERTEX
  5
2DE
330
2D4
100
AcDbEntity
  8
0
 62
     7
420
 16777215
370
     9
100
AcDbVertex
100
AcDb2dVertex
 10
298.7120555653855
 20
403.0065058058162
 30
0.0
  0
VERTEX
  5
2DF
330
2D4
100
AcDbEntity
  8
0
 62
     7
420
 16777215
370
     9
100
AcDbVertex
100
AcDb2dVertex
 10
299.0315812536555
 20
402.8911045606665
 30
0.0
  0
VERTEX
  5
2E0
330
2D4
100
AcDbEntity
  8
0
 62
     7
420
 16777215
370
     9
100
AcDbVertex
100
AcDb2dVertex
 10
299.2120555649053
 20
402.5065058053351
 30
0.0
  0
VERTEX
  5
2E1
330
2D4
100
AcDbEntity
  8
0
 62
     7
420
 16777215
370
     9
100
AcDbVertex
100
AcDb2dVertex
 10
299.2120555524143
 20
389.5065058053351
 30
0.0
  0
SEQEND
  5
2E2
330
2D4
100
AcDbEntity
  8
0
 62
     7
420
 16777215
370
     9
  0
ENDBLK
  5
2D3
330
2D0
100
AcDbEntity
  8
0
100
AcDbBlockEnd
  0
BLOCK
  5
2E5
330
2E3
100
AcDbEntity
  8
0
100
AcDbBlockBegin
  2
block 39
 70
     0
 10
0.0
 20
0.0
 30
0.0
  3
block 39
  1

  0
POLYLINE
  5
2E7
330
2E3
100
AcDbEntity
  8
0
 62
     7
420
 16777215
370
     9
100
AcDb2dPolyline
 66
     1
 10
0.0
 20
0.0
 30
0.0
  0
VERTEX
  5
2E8
330
2E7
100
AcDbEntity
  8
0
 62
     7
420
 16777215
370
     9
100
AcDbVertex
100
AcDb2dVertex
 10
280.162055552415
 20
389.5065058236378
 30
0.0
  0
VERTEX
  5
2E9
330
2E7
100
AcDbEntity
  8
0
 62
     7
420
 16777215
370
     9
100
AcDbVertex
100
AcDb2dVertex
 10
280.0466543072653
 20
389.186980135366
 30
0.0
  0
VERTEX
  5
2EA
330
2E7
100
AcDbEntity
  8
0
 62
     7
420
 16777215
370
     9
100
AcDbVertex
100
AcDb2dVertex
 10
279.6619968378091
 20
389.0065058241144
 30
0.0
  0
VERTEX
  5
2EB
330
2E7
100
AcDbEntity
  8
0
 62
     7
420
 16777215
370
     9
100
AcDbVertex
100
AcDb2dVertex
 10
266.6620555519348
 20
389.0065058366072
 30
0.0
  0
VERTEX
  5
2EC
330
2E7
100
AcDbEntity
  8
0
 62
     7
420
 16777215
370
     9
100
AcDbVertex
100
AcDb2dVertex
 10
266.3425298636648
 20
389.1219070817588
 30
0.0
  0
VERTEX
  5
2ED
330
2E7
100
AcDbEntity
  8
0
 62
     7
420
 16777215
370
     9
100
AcDbVertex
100
AcDb2dVertex
 10
266.162055552415
 20
389.5065058370874
 30
0.0
  0
VERTEX
  5
2EE
330
2E7
100
AcDbEntity
  8
0
 62
     7
420
 16777215
370
     9
100
AcDbVertex
100
AcDb2dVertex
 10
266.1620555649042
 20
402.5065058370847
 30
0.0
  0
VERTEX
  5
2EF
330
2E7
100
AcDbEntity
  8
0
 62
     7
420
 16777215
370
     9
100
AcDbVertex
100
AcDb2dVertex
 10
266.277456810054
 20
402.8260315253556
 30
0.0
  0
VERTEX
  5
2F0
330
2E7
100
AcDbEntity
  8
0
 62
     7
420
 16777215
370
     9
100
AcDbVertex
100
AcDb2dVertex
 10
266.6619854071687
 20
403.0065058366063
 30
0.0
  0
VERTEX
  5
2F1
330
2E7
100
AcDbEntity
  8
0
 62
     7
420
 16777215
370
     9
100
AcDbVertex
100
AcDb2dVertex
 10
279.6620555653844
 20
403.0065058241134
 30
0.0
  0
VERTEX
  5
2F2
330
2E7
100
AcDbEntity
  8
0
 62
     7
420
 16777215
370
     9
100
AcDbVertex
100
AcDb2dVertex
 10
279.9815812536544
 20
402.8911045789664
 30
0.0
  0
VERTEX
  5
2F3
330
2E7
100
AcDbEntity
  8
0
 62
     7
420
 16777215
370
     9
100
AcDbVertex
100
AcDb2dVertex
 10
280.1620555649042
 20
402.5065058236378
 30
0.0
  0
VERTEX
  5
2F4
330
2E7
100
AcDbEntity
  8
0
 62
     7
420
 16777215
370
     9
100
AcDbVertex
100
AcDb2dVertex
 10
280.162055552415
 20
389.5065058236378
 30
0.0
  0
SEQEND
  5
2F5
330
2E7
100
AcDbEntity
  8
0
 62
     7
420
 16777215
370
     9
  0
ENDBLK
  5
2E6
330
2E3
100
AcDbEntity
  8
0
100
AcDbBlockEnd
  0
BLOCK
  5
2F8
330
2F6
100
AcDbEntity
  8
0
100
AcDbBlockBegin
  2
block 40
 70
     0
 10
0.0
 20
0.0
 30
0.0
  3
block 40
  1

  0
POLYLINE
  5
2FA
330
2F6
100
AcDbEntity
  8
0
 62
     7
420
 16777215
370
     9
100
AcDb2dPolyline
 66
     1
 10
0.0
 20
0.0
 30
0.0
  0
VERTEX
  5
2FB
330
2FA
100
AcDbEntity
  8
0
 62
     7
420
 16777215
370
     9
100
AcDbVertex
100
AcDb2dVertex
 10
261.1120555524139
 20
389.5065058419405
 30
0.0
  0
VERTEX
  5
2FC
330
2FA
100
AcDbEntity
  8
0
 62
     7
420
 16777215
370
     9
100
AcDbVertex
100
AcDb2dVertex
 10
260.996654307266
 20
389.1869801536686
 30
0.0
  0
VERTEX
  5
2FD
330
2FA
100
AcDbEntity
  8
0
 62
     7
420
 16777215
370
     9
100
AcDbVertex
100
AcDb2dVertex
 10
260.611875530436
 20
389.006505842417
 30
0.0
  0
VERTEX
  5
2FE
330
2FA
100
AcDbEntity
  8
0
 62
     7
420
 16777215
370
     9
100
AcDbVertex
100
AcDb2dVertex
 10
247.6120555519337
 20
389.0065058549098
 30
0.0
  0
VERTEX
  5
2FF
330
2FA
100
AcDbEntity
  8
0
 62
     7
420
 16777215
370
     9
100
AcDbVertex
100
AcDb2dVertex
 10
247.2925298636655
 20
389.1219071000578
 30
0.0
  0
VERTEX
  5
300
330
2FA
100
AcDbEntity
  8
0
 62
     7
420
 16777215
370
     9
100
AcDbVertex
100
AcDb2dVertex
 10
247.1120555524158
 20
389.5065058553864
 30
0.0
  0
VERTEX
  5
301
330
2FA
100
AcDbEntity
  8
0
 62
     7
420
 16777215
370
     9
100
AcDbVertex
100
AcDb2dVertex
 10
247.1120555649049
 20
402.5065058553882
 30
0.0
  0
VERTEX
  5
302
330
2FA
100
AcDbEntity
  8
0
 62
     7
420
 16777215
370
     9
100
AcDbVertex
100
AcDb2dVertex
 10
247.2274568100547
 20
402.8260315436582
 30
0.0
  0
VERTEX
  5
303
330
2FA
100
AcDbEntity
  8
0
 62
     7
420
 16777215
370
     9
100
AcDbVertex
100
AcDb2dVertex
 10
247.6119833090852
 20
403.0065058549062
 30
0.0
  0
VERTEX
  5
304
330
2FA
100
AcDbEntity
  8
0
 62
     7
420
 16777215
370
     9
100
AcDbVertex
100
AcDb2dVertex
 10
260.6120555653852
 20
403.0065058424179
 30
0.0
  0
VERTEX
  5
305
330
2FA
100
AcDbEntity
  8
0
 62
     7
420
 16777215
370
     9
100
AcDbVertex
100
AcDb2dVertex
 10
260.9315812536552
 20
402.8911045972673
 30
0.0
  0
VERTEX
  5
306
330
2FA
100
AcDbEntity
  8
0
 62
     7
420
 16777215
370
     9
100
AcDbVertex
100
AcDb2dVertex
 10
261.1120555649031
 20
402.5065058419359
 30
0.0
  0
VERTEX
  5
307
330
2FA
100
AcDbEntity
  8
0
 62
     7
420
 16777215
370
     9
100
AcDbVertex
100
AcDb2dVertex
 10
261.1120555524139
 20
389.5065058419405
 30
0.0
  0
SEQEND
  5
308
330
2FA
100
AcDbEntity
  8
0
 62
     7
420
 16777215
370
     9
  0
ENDBLK
  5
2F9
330
2F6
100
AcDbEntity
  8
0
100
AcDbBlockEnd
  0
BLOCK
  5
30B
330
309
100
AcDbEntity
  8
0
100
AcDbBlockBegin
  2
block 41
 70
     0
 10
0.0
 20
0.0
 30
0.0
  3
block 41
  1

  0
POLYLINE
  5
30D
330
309
100
AcDbEntity
  8
0
 62
     7
420
 16777215
370
     9
100
AcDb2dPolyline
 66
     1
 10
0.0
 20
0.0
 30
0.0
  0
VERTEX
  5
30E
330
30D
100
AcDbEntity
  8
0
 62
     7
420
 16777215
370
     9
100
AcDbVertex
100
AcDb2dVertex
 10
242.0620555524129
 20
389.5065058602358
 30
0.0
  0
VERTEX
  5
30F
330
30D
100
AcDbEntity
  8
0
 62
     7
420
 16777215
370
     9
100
AcDbVertex
100
AcDb2dVertex
 10
241.9466543072667
 20
389.1869801719713
 30
0.0
  0
VERTEX
  5
310
330
30D
100
AcDbEntity
  8
0
 62
     7
420
 16777215
370
     9
100
AcDbVertex
100
AcDb2dVertex
 10
241.5619926416421
 20
389.0065058607197
 30
0.0
  0
VERTEX
  5
311
330
30D
100
AcDbEntity
  8
0
 62
     7
420
 16777215
370
     9
100
AcDbVertex
100
AcDb2dVertex
 10
228.5620555519345
 20
389.0065058732089
 30
0.0
  0
VERTEX
  5
312
330
30D
100
AcDbEntity
  8
0
 62
     7
420
 16777215
370
     9
100
AcDbVertex
100
AcDb2dVertex
 10
228.2425298636645
 20
389.1219071183605
 30
0.0
  0
VERTEX
  5
313
330
30D
100
AcDbEntity
  8
0
 62
     7
420
 16777215
370
     9
100
AcDbVertex
100
AcDb2dVertex
 10
228.0620555524147
 20
389.5065058736891
 30
0.0
  0
VERTEX
  5
314
330
30D
100
AcDbEntity
  8
0
 62
     7
420
 16777215
370
     9
100
AcDbVertex
100
AcDb2dVertex
 10
228.0620555649039
 20
402.5065058736891
 30
0.0
  0
VERTEX
  5
315
330
30D
100
AcDbEntity
  8
0
 62
     7
420
 16777215
370
     9
100
AcDbVertex
100
AcDb2dVertex
 10
228.1774568100554
 20
402.8260315619609
 30
0.0
  0
VERTEX
  5
316
330
30D
100
AcDbEntity
  8
0
 62
     7
420
 16777215
370
     9
100
AcDbVertex
100
AcDb2dVertex
 10
228.5619812110017
 20
403.0065058732125
 30
0.0
  0
VERTEX
  5
317
330
30D
100
AcDbEntity
  8
0
 62
     7
420
 16777215
370
     9
100
AcDbVertex
100
AcDb2dVertex
 10
241.5620555653859
 20
403.0065058607215
 30
0.0
  0
VERTEX
  5
318
330
30D
100
AcDbEntity
  8
0
 62
     7
420
 16777215
370
     9
100
AcDbVertex
100
AcDb2dVertex
 10
241.8815812536559
 20
402.8911046155681
 30
0.0
  0
VERTEX
  5
319
330
30D
100
AcDbEntity
  8
0
 62
     7
420
 16777215
370
     9
100
AcDbVertex
100
AcDb2dVertex
 10
242.0620555649039
 20
402.5065058602368
 30
0.0
  0
VERTEX
  5
31A
330
30D
100
AcDbEntity
  8
0
 62
     7
420
 16777215
370
     9
100
AcDbVertex
100
AcDb2dVertex
 10
242.0620555524129
 20
389.5065058602358
 30
0.0
  0
SEQEND
  5
31B
330
30D
100
AcDbEntity
  8
0
 62
     7
420
 16777215
370
     9
  0
ENDBLK
  5
30C
330
309
100
AcDbEntity
  8
0
100
AcDbBlockEnd
  0
BLOCK
  5
31E
330
31C
100
AcDbEntity
  8
0
100
AcDbBlockBegin
  2
block 42
 70
     0
 10
0.0
 20
0.0
 30
0.0
  3
block 42
  1

  0
POLYLINE
  5
320
330
31C
100
AcDbEntity
  8
0
 62
     7
420
 16777215
370
     9
100
AcDb2dPolyline
 66
     1
 10
0.0
 20
0.0
 30
0.0
  0
VERTEX
  5
321
330
320
100
AcDbEntity
  8
0
 62
     7
420
 16777215
370
     9
100
AcDbVertex
100
AcDb2dVertex
 10
223.0120555524136
 20
389.5065058785385
 30
0.0
  0
VERTEX
  5
322
330
320
100
AcDbEntity
  8
0
 62
     7
420
 16777215
370
     9
100
AcDbVertex
100
AcDb2dVertex
 10
222.8966543072656
 20
389.1869801902703
 30
0.0
  0
VERTEX
  5
323
330
320
100
AcDbEntity
  8
0
 62
     7
420
 16777215
370
     9
100
AcDbVertex
100
AcDb2dVertex
 10
222.5119905435586
 20
389.006505879026
 30
0.0
  0
VERTEX
  5
324
330
320
100
AcDbEntity
  8
0
 62
     7
420
 16777215
370
     9
100
AcDbVertex
100
AcDb2dVertex
 10
209.5120555519334
 20
389.0065058915079
 30
0.0
  0
VERTEX
  5
325
330
320
100
AcDbEntity
  8
0
 62
     7
420
 16777215
370
     9
100
AcDbVertex
100
AcDb2dVertex
 10
209.1925298636634
 20
389.1219071366595
 30
0.0
  0
VERTEX
  5
326
330
320
100
AcDbEntity
  8
0
 62
     7
420
 16777215
370
     9
100
AcDbVertex
100
AcDb2dVertex
 10
209.0120555524136
 20
389.5065058919918
 30
0.0
  0
VERTEX
  5
327
330
320
100
AcDbEntity
  8
0
 62
     7
420
 16777215
370
     9
100
AcDbVertex
100
AcDb2dVertex
 10
209.0120555649046
 20
402.5065058919945
 30
0.0
  0
VERTEX
  5
328
330
320
100
AcDbEntity
  8
0
 62
     7
420
 16777215
370
     9
100
AcDbVertex
100
AcDb2dVertex
 10
209.1274568100544
 20
402.8260315802645
 30
0.0
  0
VERTEX
  5
329
330
320
100
AcDbEntity
  8
0
 62
     7
420
 16777215
370
     9
100
AcDbVertex
100
AcDb2dVertex
 10
209.5119791129182
 20
403.0065058915134
 30
0.0
  0
VERTEX
  5
32A
330
320
100
AcDbEntity
  8
0
 62
     7
420
 16777215
370
     9
100
AcDbVertex
100
AcDb2dVertex
 10
222.5120555653866
 20
403.0065058790224
 30
0.0
  0
VERTEX
  5
32B
330
320
100
AcDbEntity
  8
0
 62
     7
420
 16777215
370
     9
100
AcDbVertex
100
AcDb2dVertex
 10
222.8315812536566
 20
402.8911046338708
 30
0.0
  0
VERTEX
  5
32C
330
320
100
AcDbEntity
  8
0
 62
     7
420
 16777215
370
     9
100
AcDbVertex
100
AcDb2dVertex
 10
223.0120555649046
 20
402.5065058785422
 30
0.0
  0
VERTEX
  5
32D
330
320
100
AcDbEntity
  8
0
 62
     7
420
 16777215
370
     9
100
AcDbVertex
100
AcDb2dVertex
 10
223.0120555524136
 20
389.5065058785385
 30
0.0
  0
SEQEND
  5
32E
330
320
100
AcDbEntity
  8
0
 62
     7
420
 16777215
370
     9
  0
ENDBLK
  5
31F
330
31C
100
AcDbEntity
  8
0
100
AcDbBlockEnd
  0
BLOCK
  5
331
330
32F
100
AcDbEntity
  8
0
100
AcDbBlockBegin
  2
block 43
 70
     0
 10
0.0
 20
0.0
 30
0.0
  3
block 43
  1

  0
POLYLINE
  5
333
330
32F
100
AcDbEntity
  8
0
 62
     7
420
 16777215
370
     9
100
AcDb2dPolyline
 66
     1
 10
0.0
 20
0.0
 30
0.0
  0
VERTEX
  5
334
330
333
100
AcDbEntity
  8
0
 62
     7
420
 16777215
370
     9
100
AcDbVertex
100
AcDb2dVertex
 10
203.9620555524143
 20
389.5065058968412
 30
0.0
  0
VERTEX
  5
335
330
333
100
AcDbEntity
  8
0
 62
     7
420
 16777215
370
     9
100
AcDbVertex
100
AcDb2dVertex
 10
203.8466543072645
 20
389.186980208573
 30
0.0
  0
VERTEX
  5
336
330
333
100
AcDbEntity
  8
0
 62
     7
420
 16777215
370
     9
100
AcDbVertex
100
AcDb2dVertex
 10
203.4619884454751
 20
389.0065058973214
 30
0.0
  0
VERTEX
  5
337
330
333
100
AcDbEntity
  8
0
 62
     7
420
 16777215
370
     9
100
AcDbVertex
100
AcDb2dVertex
 10
190.4620555519341
 20
389.0065059098142
 30
0.0
  0
VERTEX
  5
338
330
333
100
AcDbEntity
  8
0
 62
     7
420
 16777215
370
     9
100
AcDbVertex
100
AcDb2dVertex
 10
190.1425298636641
 20
389.1219071549658
 30
0.0
  0
VERTEX
  5
339
330
333
100
AcDbEntity
  8
0
 62
     7
420
 16777215
370
     9
100
AcDbVertex
100
AcDb2dVertex
 10
189.9620555524143
 20
389.5065059102944
 30
0.0
  0
VERTEX
  5
33A
330
333
100
AcDbEntity
  8
0
 62
     7
420
 16777215
370
     9
100
AcDbVertex
100
AcDb2dVertex
 10
189.9620555649053
 20
402.5065059102953
 30
0.0
  0
VERTEX
  5
33B
330
333
100
AcDbEntity
  8
0
 62
     7
420
 16777215
370
     9
100
AcDbVertex
100
AcDb2dVertex
 10
190.0774568100551
 20
402.8260315985608
 30
0.0
  0
VERTEX
  5
33C
330
333
100
AcDbEntity
  8
0
 62
     7
420
 16777215
370
     9
100
AcDbVertex
100
AcDb2dVertex
 10
190.4619770148347
 20
403.0065059098124
 30
0.0
  0
VERTEX
  5
33D
330
333
100
AcDbEntity
  8
0
 62
     7
420
 16777215
370
     9
100
AcDbVertex
100
AcDb2dVertex
 10
203.4620555653855
 20
403.006505897326
 30
0.0
  0
VERTEX
  5
33E
330
333
100
AcDbEntity
  8
0
 62
     7
420
 16777215
370
     9
100
AcDbVertex
100
AcDb2dVertex
 10
203.7815812536555
 20
402.8911046521762
 30
0.0
  0
VERTEX
  5
33F
330
333
100
AcDbEntity
  8
0
 62
     7
420
 16777215
370
     9
100
AcDbVertex
100
AcDb2dVertex
 10
203.9620555649053
 20
402.5065058968466
 30
0.0
  0
VERTEX
  5
340
330
333
100
AcDbEntity
  8
0
 62
     7
420
 16777215
370
     9
100
AcDbVertex
100
AcDb2dVertex
 10
203.9620555524143
 20
389.5065058968412
 30
0.0
  0
SEQEND
  5
341
330
333
100
AcDbEntity
  8
0
 62
     7
420
 16777215
370
     9
  0
ENDBLK
  5
332
330
32F
100
AcDbEntity
  8
0
100
AcDbBlockEnd
  0
BLOCK
  5
344
330
342
100
AcDbEntity
  8
0
100
AcDbBlockBegin
  2
block 44
 70
     0
 10
0.0
 20
0.0
 30
0.0
  3
block 44
  1

  0
POLYLINE
  5
346
330
342
100
AcDbEntity
  8
0
 62
     7
420
 16777215
370
     9
100
AcDb2dPolyline
 66
     1
 10
0.0
 20
0.0
 30
0.0
  0
VERTEX
  5
347
330
346
100
AcDbEntity
  8
0
 62
     7
420
 16777215
370
     9
100
AcDbVertex
100
AcDb2dVertex
 10
177.7683055524139
 20
389.5065059220087
 30
0.0
  0
VERTEX
  5
348
330
346
100
AcDbEntity
  8
0
 62
     7
420
 16777215
370
     9
100
AcDbVertex
100
AcDb2dVertex
 10
177.652904307266
 20
389.1869802337369
 30
0.0
  0
VERTEX
  5
349
330
346
100
AcDbEntity
  8
0
 62
     7
420
 16777215
370
     9
100
AcDbVertex
100
AcDb2dVertex
 10
177.2682504617715
 20
389.0065059224889
 30
0.0
  0
VERTEX
  5
34A
330
346
100
AcDbEntity
  8
0
 62
     7
420
 16777215
370
     9
100
AcDbVertex
100
AcDb2dVertex
 10
159.5058055519348
 20
389.0065059395511
 30
0.0
  0
VERTEX
  5
34B
330
346
100
AcDbEntity
  8
0
 62
     7
420
 16777215
370
     9
100
AcDbVertex
100
AcDb2dVertex
 10
159.1862798636648
 20
389.1219071847026
 30
0.0
  0
VERTEX
  5
34C
330
346
100
AcDbEntity
  8
0
 62
     7
420
 16777215
370
     9
100
AcDbVertex
100
AcDb2dVertex
 10
159.005805552415
 20
389.5065059400313
 30
0.0
  0
VERTEX
  5
34D
330
346
100
AcDbEntity
  8
0
 62
     7
420
 16777215
370
     9
100
AcDbVertex
100
AcDb2dVertex
 10
159.0058055649024
 20
402.506505940034
 30
0.0
  0
VERTEX
  5
34E
330
346
100
AcDbEntity
  8
0
 62
     7
420
 16777215
370
     9
100
AcDbVertex
100
AcDb2dVertex
 10
159.121206810054
 20
402.8260316283049
 30
0.0
  0
VERTEX
  5
34F
330
346
100
AcDbEntity
  8
0
 62
     7
420
 16777215
370
     9
100
AcDbVertex
100
AcDb2dVertex
 10
159.5057087042878
 20
403.0065059395565
 30
0.0
  0
VERTEX
  5
350
330
346
100
AcDbEntity
  8
0
 62
     7
420
 16777215
370
     9
100
AcDbVertex
100
AcDb2dVertex
 10
177.2683055653852
 20
403.0065059224926
 30
0.0
  0
VERTEX
  5
351
330
346
100
AcDbEntity
  8
0
 62
     7
420
 16777215
370
     9
100
AcDbVertex
100
AcDb2dVertex
 10
177.5878312536552
 20
402.891104677341
 30
0.0
  0
VERTEX
  5
352
330
346
100
AcDbEntity
  8
0
 62
     7
420
 16777215
370
     9
100
AcDbVertex
100
AcDb2dVertex
 10
177.7683055649031
 20
402.5065059220096
 30
0.0
  0
VERTEX
  5
353
330
346
100
AcDbEntity
  8
0
 62
     7
420
 16777215
370
     9
100
AcDbVertex
100
AcDb2dVertex
 10
177.7683055524139
 20
389.5065059220087
 30
0.0
  0
SEQEND
  5
354
330
346
100
AcDbEntity
  8
0
 62
     7
420
 16777215
370
     9
  0
ENDBLK
  5
345
330
342
100
AcDbEntity
  8
0
100
AcDbBlockEnd
  0
BLOCK
  5
357
330
355
100
AcDbEntity
  8
0
100
AcDbBlockBegin
  2
block 45
 70
     0
 10
0.0
 20
0.0
 30
0.0
  3
block 45
  1

  0
POLYLINE
  5
359
330
355
100
AcDbEntity
  8
0
 62
     7
420
 16777215
370
     9
100
AcDb2dPolyline
 66
     1
 10
0.0
 20
0.0
 30
0.0
  0
VERTEX
  5
35A
330
359
100
AcDbEntity
  8
0
 62
     7
420
 16777215
370
     9
100
AcDbVertex
100
AcDb2dVertex
 10
456.3745555707173
 20
408.5565056543437
 30
0.0
  0
VERTEX
  5
35B
330
359
100
AcDbEntity
  8
0
 62
     7
420
 16777215
370
     9
100
AcDbVertex
100
AcDb2dVertex
 10
456.2591543255658
 20
408.236979966071
 30
0.0
  0
VERTEX
  5
35C
330
359
100
AcDbEntity
  8
0
 62
     7
420
 16777215
370
     9
100
AcDbVertex
100
AcDb2dVertex
 10
455.8745460657046
 20
408.0565056548257
 30
0.0
  0
VERTEX
  5
35D
330
359
100
AcDbEntity
  8
0
 62
     7
420
 16777215
370
     9
100
AcDbVertex
100
AcDb2dVertex
 10
442.8745555702371
 20
408.0565056673113
 30
0.0
  0
VERTEX
  5
35E
330
359
100
AcDbEntity
  8
0
 62
     7
420
 16777215
370
     9
100
AcDbVertex
100
AcDb2dVertex
 10
442.5550298819671
 20
408.1719069124629
 30
0.0
  0
VERTEX
  5
35F
330
359
100
AcDbEntity
  8
0
 62
     7
420
 16777215
370
     9
100
AcDbVertex
100
AcDb2dVertex
 10
442.3745555707173
 20
408.5565056677933
 30
0.0
  0
VERTEX
  5
360
330
359
100
AcDbEntity
  8
0
 62
     7
420
 16777215
370
     9
100
AcDbVertex
100
AcDb2dVertex
 10
442.3745555832065
 20
421.556505667796
 30
0.0
  0
VERTEX
  5
361
330
359
100
AcDbEntity
  8
0
 62
     7
420
 16777215
370
     9
100
AcDbVertex
100
AcDb2dVertex
 10
442.4899568283581
 20
421.8760313560642
 30
0.0
  0
VERTEX
  5
362
330
359
100
AcDbEntity
  8
0
 62
     7
420
 16777215
370
     9
100
AcDbVertex
100
AcDb2dVertex
 10
442.8745346350643
 20
422.0565056673113
 30
0.0
  0
VERTEX
  5
363
330
359
100
AcDbEntity
  8
0
 62
     7
420
 16777215
370
     9
100
AcDbVertex
100
AcDb2dVertex
 10
455.8745555836867
 20
422.0565056548239
 30
0.0
  0
VERTEX
  5
364
330
359
100
AcDbEntity
  8
0
 62
     7
420
 16777215
370
     9
100
AcDbVertex
100
AcDb2dVertex
 10
456.1940812719567
 20
421.9411044096751
 30
0.0
  0
VERTEX
  5
365
330
359
100
AcDbEntity
  8
0
 62
     7
420
 16777215
370
     9
100
AcDbVertex
100
AcDb2dVertex
 10
456.3745555832065
 20
421.5565056543455
 30
0.0
  0
VERTEX
  5
366
330
359
100
AcDbEntity
  8
0
 62
     7
420
 16777215
370
     9
100
AcDbVertex
100
AcDb2dVertex
 10
456.3745555707173
 20
408.5565056543437
 30
0.0
  0
SEQEND
  5
367
330
359
100
AcDbEntity
  8
0
 62
     7
420
 16777215
370
     9
  0
ENDBLK
  5
358
330
355
100
AcDbEntity
  8
0
100
AcDbBlockEnd
  0
BLOCK
  5
36A
330
368
100
AcDbEntity
  8
0
100
AcDbBlockBegin
  2
block 46
 70
     0
 10
0.0
 20
0.0
 30
0.0
  3
block 46
  1

  0
POLYLINE
  5
36C
330
368
100
AcDbEntity
  8
0
 62
     7
420
 16777215
370
     9
100
AcDb2dPolyline
 66
     1
 10
0.0
 20
0.0
 30
0.0
  0
VERTEX
  5
36D
330
36C
100
AcDbEntity
  8
0
 62
     7
420
 16777215
370
     9
100
AcDbVertex
100
AcDb2dVertex
 10
432.5620555707173
 20
408.5565056772239
 30
0.0
  0
VERTEX
  5
36E
330
36C
100
AcDbEntity
  8
0
 62
     7
420
 16777215
370
     9
100
AcDbVertex
100
AcDb2dVertex
 10
432.4466543255658
 20
408.2369799889539
 30
0.0
  0
VERTEX
  5
36F
330
36C
100
AcDbEntity
  8
0
 62
     7
420
 16777215
370
     9
100
AcDbVertex
100
AcDb2dVertex
 10
432.0620136407779
 20
408.0565056777032
 30
0.0
  0
VERTEX
  5
370
330
36C
100
AcDbEntity
  8
0
 62
     7
420
 16777215
370
     9
100
AcDbVertex
100
AcDb2dVertex
 10
419.0620555702371
 20
408.0565056901942
 30
0.0
  0
VERTEX
  5
371
330
36C
100
AcDbEntity
  8
0
 62
     7
420
 16777215
370
     9
100
AcDbVertex
100
AcDb2dVertex
 10
418.7425298819671
 20
408.1719069353394
 30
0.0
  0
VERTEX
  5
372
330
36C
100
AcDbEntity
  8
0
 62
     7
420
 16777215
370
     9
100
AcDbVertex
100
AcDb2dVertex
 10
418.5620555707173
 20
408.5565056906744
 30
0.0
  0
VERTEX
  5
373
330
36C
100
AcDbEntity
  8
0
 62
     7
420
 16777215
370
     9
100
AcDbVertex
100
AcDb2dVertex
 10
418.5620555832065
 20
421.5565056906707
 30
0.0
  0
VERTEX
  5
374
330
36C
100
AcDbEntity
  8
0
 62
     7
420
 16777215
370
     9
100
AcDbVertex
100
AcDb2dVertex
 10
418.6774568283581
 20
421.8760313789417
 30
0.0
  0
VERTEX
  5
375
330
36C
100
AcDbEntity
  8
0
 62
     7
420
 16777215
370
     9
100
AcDbVertex
100
AcDb2dVertex
 10
419.0620022101375
 20
422.0565056901942
 30
0.0
  0
VERTEX
  5
376
330
36C
100
AcDbEntity
  8
0
 62
     7
420
 16777215
370
     9
100
AcDbVertex
100
AcDb2dVertex
 10
432.0620555836867
 20
422.0565056777032
 30
0.0
  0
VERTEX
  5
377
330
36C
100
AcDbEntity
  8
0
 62
     7
420
 16777215
370
     9
100
AcDbVertex
100
AcDb2dVertex
 10
432.3815812719567
 20
421.9411044325498
 30
0.0
  0
VERTEX
  5
378
330
36C
100
AcDbEntity
  8
0
 62
     7
420
 16777215
370
     9
100
AcDbVertex
100
AcDb2dVertex
 10
432.5620555832065
 20
421.5565056772193
 30
0.0
  0
VERTEX
  5
379
330
36C
100
AcDbEntity
  8
0
 62
     7
420
 16777215
370
     9
100
AcDbVertex
100
AcDb2dVertex
 10
432.5620555707173
 20
408.5565056772239
 30
0.0
  0
SEQEND
  5
37A
330
36C
100
AcDbEntity
  8
0
 62
     7
420
 16777215
370
     9
  0
ENDBLK
  5
36B
330
368
100
AcDbEntity
  8
0
100
AcDbBlockEnd
  0
BLOCK
  5
37D
330
37B
100
AcDbEntity
  8
0
100
AcDbBlockBegin
  2
block 47
 70
     0
 10
0.0
 20
0.0
 30
0.0
  3
block 47
  1

  0
POLYLINE
  5
37F
330
37B
100
AcDbEntity
  8
0
 62
     7
420
 16777215
370
     9
100
AcDb2dPolyline
 66
     1
 10
0.0
 20
0.0
 30
0.0
  0
VERTEX
  5
380
330
37F
100
AcDbEntity
  8
0
 62
     7
420
 16777215
370
     9
100
AcDbVertex
100
AcDb2dVertex
 10
408.7495555707173
 20
408.5565057001013
 30
0.0
  0
VERTEX
  5
381
330
37F
100
AcDbEntity
  8
0
 62
     7
420
 16777215
370
     9
100
AcDbVertex
100
AcDb2dVertex
 10
408.6341543255658
 20
408.2369800118286
 30
0.0
  0
VERTEX
  5
382
330
37F
100
AcDbEntity
  8
0
 62
     7
420
 16777215
370
     9
100
AcDbVertex
100
AcDb2dVertex
 10
408.2494812158511
 20
408.0565057005779
 30
0.0
  0
VERTEX
  5
383
330
37F
100
AcDbEntity
  8
0
 62
     7
420
 16777215
370
     9
100
AcDbVertex
100
AcDb2dVertex
 10
395.2495555702371
 20
408.0565057130689
 30
0.0
  0
VERTEX
  5
384
330
37F
100
AcDbEntity
  8
0
 62
     7
420
 16777215
370
     9
100
AcDbVertex
100
AcDb2dVertex
 10
394.9300298819671
 20
408.1719069582223
 30
0.0
  0
VERTEX
  5
385
330
37F
100
AcDbEntity
  8
0
 62
     7
420
 16777215
370
     9
100
AcDbVertex
100
AcDb2dVertex
 10
394.7495555707173
 20
408.5565057135518
 30
0.0
  0
VERTEX
  5
386
330
37F
100
AcDbEntity
  8
0
 62
     7
420
 16777215
370
     9
100
AcDbVertex
100
AcDb2dVertex
 10
394.7495555832065
 20
421.5565057135482
 30
0.0
  0
VERTEX
  5
387
330
37F
100
AcDbEntity
  8
0
 62
     7
420
 16777215
370
     9
100
AcDbVertex
100
AcDb2dVertex
 10
394.8649568283581
 20
421.8760314018182
 30
0.0
  0
VERTEX
  5
388
330
37F
100
AcDbEntity
  8
0
 62
     7
420
 16777215
370
     9
100
AcDbVertex
100
AcDb2dVertex
 10
395.2494697852107
 20
422.0565057130689
 30
0.0
  0
VERTEX
  5
389
330
37F
100
AcDbEntity
  8
0
 62
     7
420
 16777215
370
     9
100
AcDbVertex
100
AcDb2dVertex
 10
408.2495555836867
 20
422.0565057005779
 30
0.0
  0
VERTEX
  5
38A
330
37F
100
AcDbEntity
  8
0
 62
     7
420
 16777215
370
     9
100
AcDbVertex
100
AcDb2dVertex
 10
408.5690812719567
 20
421.9411044554308
 30
0.0
  0
VERTEX
  5
38B
330
37F
100
AcDbEntity
  8
0
 62
     7
420
 16777215
370
     9
100
AcDbVertex
100
AcDb2dVertex
 10
408.7495555832065
 20
421.5565057001013
 30
0.0
  0
VERTEX
  5
38C
330
37F
100
AcDbEntity
  8
0
 62
     7
420
 16777215
370
     9
100
AcDbVertex
100
AcDb2dVertex
 10
408.7495555707173
 20
408.5565057001013
 30
0.0
  0
SEQEND
  5
38D
330
37F
100
AcDbEntity
  8
0
 62
     7
420
 16777215
370
     9
  0
ENDBLK
  5
37E
330
37B
100
AcDbEntity
  8
0
100
AcDbBlockEnd
  0
BLOCK
  5
390
330
38E
100
AcDbEntity
  8
0
100
AcDbBlockBegin
  2
block 48
 70
     0
 10
0.0
 20
0.0
 30
0.0
  3
block 48
  1

  0
POLYLINE
  5
392
330
38E
100
AcDbEntity
  8
0
 62
     7
420
 16777215
370
     9
100
AcDb2dPolyline
 66
     1
 10
0.0
 20
0.0
 30
0.0
  0
VERTEX
  5
393
330
392
100
AcDbEntity
  8
0
 62
     7
420
 16777215
370
     9
100
AcDbVertex
100
AcDb2dVertex
 10
389.6995555707181
 20
408.5565057184021
 30
0.0
  0
VERTEX
  5
394
330
392
100
AcDbEntity
  8
0
 62
     7
420
 16777215
370
     9
100
AcDbVertex
100
AcDb2dVertex
 10
389.5841543255665
 20
408.2369800301321
 30
0.0
  0
VERTEX
  5
395
330
392
100
AcDbEntity
  8
0
 62
     7
420
 16777215
370
     9
100
AcDbVertex
100
AcDb2dVertex
 10
389.1993599084781
 20
408.0565057188815
 30
0.0
  0
VERTEX
  5
396
330
392
100
AcDbEntity
  8
0
 62
     7
420
 16777215
370
     9
100
AcDbVertex
100
AcDb2dVertex
 10
376.1995555702342
 20
408.0565057313688
 30
0.0
  0
VERTEX
  5
397
330
392
100
AcDbEntity
  8
0
 62
     7
420
 16777215
370
     9
100
AcDbVertex
100
AcDb2dVertex
 10
375.880029881966
 20
408.1719069765177
 30
0.0
  0
VERTEX
  5
398
330
392
100
AcDbEntity
  8
0
 62
     7
420
 16777215
370
     9
100
AcDbVertex
100
AcDb2dVertex
 10
375.6995555707181
 20
408.556505731849
 30
0.0
  0
VERTEX
  5
399
330
392
100
AcDbEntity
  8
0
 62
     7
420
 16777215
370
     9
100
AcDbVertex
100
AcDb2dVertex
 10
375.6995555832073
 20
421.556505731849
 30
0.0
  0
VERTEX
  5
39A
330
392
100
AcDbEntity
  8
0
 62
     7
420
 16777215
370
     9
100
AcDbVertex
100
AcDb2dVertex
 10
375.8149568283552
 20
421.8760314201218
 30
0.0
  0
VERTEX
  5
39B
330
392
100
AcDbEntity
  8
0
 62
     7
420
 16777215
370
     9
100
AcDbVertex
100
AcDb2dVertex
 10
376.1993484778377
 20
422.0565057313725
 30
0.0
  0
VERTEX
  5
39C
330
392
100
AcDbEntity
  8
0
 62
     7
420
 16777215
370
     9
100
AcDbVertex
100
AcDb2dVertex
 10
389.1995555836857
 20
422.0565057188815
 30
0.0
  0
VERTEX
  5
39D
330
392
100
AcDbEntity
  8
0
 62
     7
420
 16777215
370
     9
100
AcDbVertex
100
AcDb2dVertex
 10
389.5190812719575
 20
421.941104473728
 30
0.0
  0
VERTEX
  5
39E
330
392
100
AcDbEntity
  8
0
 62
     7
420
 16777215
370
     9
100
AcDbVertex
100
AcDb2dVertex
 10
389.6995555832073
 20
421.5565057183976
 30
0.0
  0
VERTEX
  5
39F
330
392
100
AcDbEntity
  8
0
 62
     7
420
 16777215
370
     9
100
AcDbVertex
100
AcDb2dVertex
 10
389.6995555707181
 20
408.5565057184021
 30
0.0
  0
SEQEND
  5
3A0
330
392
100
AcDbEntity
  8
0
 62
     7
420
 16777215
370
     9
  0
ENDBLK
  5
391
330
38E
100
AcDbEntity
  8
0
100
AcDbBlockEnd
  0
BLOCK
  5
3A3
330
3A1
100
AcDbEntity
  8
0
100
AcDbBlockBegin
  2
block 49
 70
     0
 10
0.0
 20
0.0
 30
0.0
  3
block 49
  1

  0
POLYLINE
  5
3A5
330
3A1
100
AcDbEntity
  8
0
 62
     7
420
 16777215
370
     9
100
AcDb2dPolyline
 66
     1
 10
0.0
 20
0.0
 30
0.0
  0
VERTEX
  5
3A6
330
3A5
100
AcDbEntity
  8
0
 62
     7
420
 16777215
370
     9
100
AcDbVertex
100
AcDb2dVertex
 10
370.6495555707188
 20
408.5565057367057
 30
0.0
  0
VERTEX
  5
3A7
330
3A5
100
AcDbEntity
  8
0
 62
     7
420
 16777215
370
     9
100
AcDbVertex
100
AcDb2dVertex
 10
370.5341543255654
 20
408.2369800484339
 30
0.0
  0
VERTEX
  5
3A8
330
3A5
100
AcDbEntity
  8
0
 62
     7
420
 16777215
370
     9
100
AcDbVertex
100
AcDb2dVertex
 10
370.1494770196841
 20
408.0565057371841
 30
0.0
  0
VERTEX
  5
3A9
330
3A5
100
AcDbEntity
  8
0
 62
     7
420
 16777215
370
     9
100
AcDbVertex
100
AcDb2dVertex
 10
357.149555570235
 20
408.0565057496715
 30
0.0
  0
VERTEX
  5
3AA
330
3A5
100
AcDbEntity
  8
0
 62
     7
420
 16777215
370
     9
100
AcDbVertex
100
AcDb2dVertex
 10
356.8300298819668
 20
408.1719069948231
 30
0.0
  0
VERTEX
  5
3AB
330
3A5
100
AcDbEntity
  8
0
 62
     7
420
 16777215
370
     9
100
AcDbVertex
100
AcDb2dVertex
 10
356.6495555707188
 20
408.5565057501517
 30
0.0
  0
VERTEX
  5
3AC
330
3A5
100
AcDbEntity
  8
0
 62
     7
420
 16777215
370
     9
100
AcDbVertex
100
AcDb2dVertex
 10
356.649555583208
 20
421.5565057501535
 30
0.0
  0
VERTEX
  5
3AD
330
3A5
100
AcDbEntity
  8
0
 62
     7
420
 16777215
370
     9
100
AcDbVertex
100
AcDb2dVertex
 10
356.7649568283559
 20
421.8760314384263
 30
0.0
  0
VERTEX
  5
3AE
330
3A5
100
AcDbEntity
  8
0
 62
     7
420
 16777215
370
     9
100
AcDbVertex
100
AcDb2dVertex
 10
357.1494655890438
 20
422.0565057496751
 30
0.0
  0
VERTEX
  5
3AF
330
3A5
100
AcDbEntity
  8
0
 62
     7
420
 16777215
370
     9
100
AcDbVertex
100
AcDb2dVertex
 10
370.1495555836864
 20
422.0565057371823
 30
0.0
  0
VERTEX
  5
3B0
330
3A5
100
AcDbEntity
  8
0
 62
     7
420
 16777215
370
     9
100
AcDbVertex
100
AcDb2dVertex
 10
370.4690812719582
 20
421.9411044920325
 30
0.0
  0
VERTEX
  5
3B1
330
3A5
100
AcDbEntity
  8
0
 62
     7
420
 16777215
370
     9
100
AcDbVertex
100
AcDb2dVertex
 10
370.649555583208
 20
421.5565057367021
 30
0.0
  0
VERTEX
  5
3B2
330
3A5
100
AcDbEntity
  8
0
 62
     7
420
 16777215
370
     9
100
AcDbVertex
100
AcDb2dVertex
 10
370.6495555707188
 20
408.5565057367057
 30
0.0
  0
SEQEND
  5
3B3
330
3A5
100
AcDbEntity
  8
0
 62
     7
420
 16777215
370
     9
  0
ENDBLK
  5
3A4
330
3A1
100
AcDbEntity
  8
0
100
AcDbBlockEnd
  0
BLOCK
  5
3B6
330
3B4
100
AcDbEntity
  8
0
100
AcDbBlockBegin
  2
block 50
 70
     0
 10
0.0
 20
0.0
 30
0.0
  3
block 50
  1

  0
POLYLINE
  5
3B8
330
3B4
100
AcDbEntity
  8
0
 62
     7
420
 16777215
370
     9
100
AcDb2dPolyline
 66
     1
 10
0.0
 20
0.0
 30
0.0
  0
VERTEX
  5
3B9
330
3B8
100
AcDbEntity
  8
0
 62
     7
420
 16777215
370
     9
100
AcDbVertex
100
AcDb2dVertex
 10
351.5995555707195
 20
408.5565057550048
 30
0.0
  0
VERTEX
  5
3BA
330
3B8
100
AcDbEntity
  8
0
 62
     7
420
 16777215
370
     9
100
AcDbVertex
100
AcDb2dVertex
 10
351.4841543255661
 20
408.2369800667348
 30
0.0
  0
VERTEX
  5
3BB
330
3B8
100
AcDbEntity
  8
0
 62
     7
420
 16777215
370
     9
100
AcDbVertex
100
AcDb2dVertex
 10
351.0993557123111
 20
408.0565057554877
 30
0.0
  0
VERTEX
  5
3BC
330
3B8
100
AcDbEntity
  8
0
 62
     7
420
 16777215
370
     9
100
AcDbVertex
100
AcDb2dVertex
 10
338.0995555702357
 20
408.0565057679723
 30
0.0
  0
VERTEX
  5
3BD
330
3B8
100
AcDbEntity
  8
0
 62
     7
420
 16777215
370
     9
100
AcDbVertex
100
AcDb2dVertex
 10
337.7800298819675
 20
408.1719070131239
 30
0.0
  0
VERTEX
  5
3BE
330
3B8
100
AcDbEntity
  8
0
 62
     7
420
 16777215
370
     9
100
AcDbVertex
100
AcDb2dVertex
 10
337.5995555707195
 20
408.5565057684535
 30
0.0
  0
VERTEX
  5
3BF
330
3B8
100
AcDbEntity
  8
0
 62
     7
420
 16777215
370
     9
100
AcDbVertex
100
AcDb2dVertex
 10
337.5995555832087
 20
421.5565057684553
 30
0.0
  0
VERTEX
  5
3C0
330
3B8
100
AcDbEntity
  8
0
 62
     7
420
 16777215
370
     9
100
AcDbVertex
100
AcDb2dVertex
 10
337.7149568283567
 20
421.8760314567271
 30
0.0
  0
VERTEX
  5
3C1
330
3B8
100
AcDbEntity
  8
0
 62
     7
420
 16777215
370
     9
100
AcDbVertex
100
AcDb2dVertex
 10
338.0993442816707
 20
422.0565057679723
 30
0.0
  0
VERTEX
  5
3C2
330
3B8
100
AcDbEntity
  8
0
 62
     7
420
 16777215
370
     9
100
AcDbVertex
100
AcDb2dVertex
 10
351.0995555836853
 20
422.0565057554877
 30
0.0
  0
VERTEX
  5
3C3
330
3B8
100
AcDbEntity
  8
0
 62
     7
420
 16777215
370
     9
100
AcDbVertex
100
AcDb2dVertex
 10
351.4190812719571
 20
421.9411045103352
 30
0.0
  0
VERTEX
  5
3C4
330
3B8
100
AcDbEntity
  8
0
 62
     7
420
 16777215
370
     9
100
AcDbVertex
100
AcDb2dVertex
 10
351.5995555832087
 20
421.5565057550066
 30
0.0
  0
VERTEX
  5
3C5
330
3B8
100
AcDbEntity
  8
0
 62
     7
420
 16777215
370
     9
100
AcDbVertex
100
AcDb2dVertex
 10
351.5995555707195
 20
408.5565057550048
 30
0.0
  0
SEQEND
  5
3C6
330
3B8
100
AcDbEntity
  8
0
 62
     7
420
 16777215
370
     9
  0
ENDBLK
  5
3B7
330
3B4
100
AcDbEntity
  8
0
100
AcDbBlockEnd
  0
BLOCK
  5
3C9
330
3C7
100
AcDbEntity
  8
0
100
AcDbBlockBegin
  2
block 51
 70
     0
 10
0.0
 20
0.0
 30
0.0
  3
block 51
  1

  0
POLYLINE
  5
3CB
330
3C7
100
AcDbEntity
  8
0
 62
     7
420
 16777215
370
     9
100
AcDb2dPolyline
 66
     1
 10
0.0
 20
0.0
 30
0.0
  0
VERTEX
  5
3CC
330
3CB
100
AcDbEntity
  8
0
 62
     7
420
 16777215
370
     9
100
AcDbVertex
100
AcDb2dVertex
 10
332.5495555707166
 20
408.5565057733056
 30
0.0
  0
VERTEX
  5
3CD
330
3CB
100
AcDbEntity
  8
0
 62
     7
420
 16777215
370
     9
100
AcDbVertex
100
AcDb2dVertex
 10
332.434154325565
 20
408.2369800850338
 30
0.0
  0
VERTEX
  5
3CE
330
3CB
100
AcDbEntity
  8
0
 62
     7
420
 16777215
370
     9
100
AcDbVertex
100
AcDb2dVertex
 10
332.0494728235171
 20
408.056505773784
 30
0.0
  0
VERTEX
  5
3CF
330
3CB
100
AcDbEntity
  8
0
 62
     7
420
 16777215
370
     9
100
AcDbVertex
100
AcDb2dVertex
 10
319.0495555702364
 20
408.0565057862777
 30
0.0
  0
VERTEX
  5
3D0
330
3CB
100
AcDbEntity
  8
0
 62
     7
420
 16777215
370
     9
100
AcDbVertex
100
AcDb2dVertex
 10
318.7300298819664
 20
408.1719070314284
 30
0.0
  0
VERTEX
  5
3D1
330
3CB
100
AcDbEntity
  8
0
 62
     7
420
 16777215
370
     9
100
AcDbVertex
100
AcDb2dVertex
 10
318.5495555707166
 20
408.5565057867561
 30
0.0
  0
VERTEX
  5
3D2
330
3CB
100
AcDbEntity
  8
0
 62
     7
420
 16777215
370
     9
100
AcDbVertex
100
AcDb2dVertex
 10
318.5495555832058
 20
421.5565057867525
 30
0.0
  0
VERTEX
  5
3D3
330
3CB
100
AcDbEntity
  8
0
 62
     7
420
 16777215
370
     9
100
AcDbVertex
100
AcDb2dVertex
 10
318.6649568283574
 20
421.8760314750307
 30
0.0
  0
VERTEX
  5
3D4
330
3CB
100
AcDbEntity
  8
0
 62
     7
420
 16777215
370
     9
100
AcDbVertex
100
AcDb2dVertex
 10
319.0494613928768
 20
422.056505786275
 30
0.0
  0
VERTEX
  5
3D5
330
3CB
100
AcDbEntity
  8
0
 62
     7
420
 16777215
370
     9
100
AcDbVertex
100
AcDb2dVertex
 10
332.049555583686
 20
422.0565057737886
 30
0.0
  0
VERTEX
  5
3D6
330
3CB
100
AcDbEntity
  8
0
 62
     7
420
 16777215
370
     9
100
AcDbVertex
100
AcDb2dVertex
 10
332.3690812719578
 20
421.941104528637
 30
0.0
  0
VERTEX
  5
3D7
330
3CB
100
AcDbEntity
  8
0
 62
     7
420
 16777215
370
     9
100
AcDbVertex
100
AcDb2dVertex
 10
332.5495555832058
 20
421.5565057733074
 30
0.0
  0
VERTEX
  5
3D8
330
3CB
100
AcDbEntity
  8
0
 62
     7
420
 16777215
370
     9
100
AcDbVertex
100
AcDb2dVertex
 10
332.5495555707166
 20
408.5565057733056
 30
0.0
  0
SEQEND
  5
3D9
330
3CB
100
AcDbEntity
  8
0
 62
     7
420
 16777215
370
     9
  0
ENDBLK
  5
3CA
330
3C7
100
AcDbEntity
  8
0
100
AcDbBlockEnd
  0
BLOCK
  5
3DC
330
3DA
100
AcDbEntity
  8
0
100
AcDbBlockBegin
  2
block 52
 70
     0
 10
0.0
 20
0.0
 30
0.0
  3
block 52
  1

  0
POLYLINE
  5
3DE
330
3DA
100
AcDbEntity
  8
0
 62
     7
420
 16777215
370
     9
100
AcDb2dPolyline
 66
     1
 10
0.0
 20
0.0
 30
0.0
  0
VERTEX
  5
3DF
330
3DE
100
AcDbEntity
  8
0
 62
     7
420
 16777215
370
     9
100
AcDbVertex
100
AcDb2dVertex
 10
313.4995555707173
 20
408.5565057916092
 30
0.0
  0
VERTEX
  5
3E0
330
3DE
100
AcDbEntity
  8
0
 62
     7
420
 16777215
370
     9
100
AcDbVertex
100
AcDb2dVertex
 10
313.3841543255676
 20
408.2369801033383
 30
0.0
  0
VERTEX
  5
3E1
330
3DE
100
AcDbEntity
  8
0
 62
     7
420
 16777215
370
     9
100
AcDbVertex
100
AcDb2dVertex
 10
312.9993515161441
 20
408.0565057920876
 30
0.0
  0
VERTEX
  5
3E2
330
3DE
100
AcDbEntity
  8
0
 62
     7
420
 16777215
370
     9
100
AcDbVertex
100
AcDb2dVertex
 10
299.9995555702353
 20
408.0565058045786
 30
0.0
  0
VERTEX
  5
3E3
330
3DE
100
AcDbEntity
  8
0
 62
     7
420
 16777215
370
     9
100
AcDbVertex
100
AcDb2dVertex
 10
299.6800298819653
 20
408.171907049732
 30
0.0
  0
VERTEX
  5
3E4
330
3DE
100
AcDbEntity
  8
0
 62
     7
420
 16777215
370
     9
100
AcDbVertex
100
AcDb2dVertex
 10
299.4995555707173
 20
408.5565058050615
 30
0.0
  0
VERTEX
  5
3E5
330
3DE
100
AcDbEntity
  8
0
 62
     7
420
 16777215
370
     9
100
AcDbVertex
100
AcDb2dVertex
 10
299.4995555832083
 20
421.5565058050579
 30
0.0
  0
VERTEX
  5
3E6
330
3DE
100
AcDbEntity
  8
0
 62
     7
420
 16777215
370
     9
100
AcDbVertex
100
AcDb2dVertex
 10
299.6149568283563
 20
421.8760314933279
 30
0.0
  0
VERTEX
  5
3E7
330
3DE
100
AcDbEntity
  8
0
 62
     7
420
 16777215
370
     9
100
AcDbVertex
100
AcDb2dVertex
 10
299.9993400855037
 20
422.0565058045786
 30
0.0
  0
VERTEX
  5
3E8
330
3DE
100
AcDbEntity
  8
0
 62
     7
420
 16777215
370
     9
100
AcDbVertex
100
AcDb2dVertex
 10
312.9995555836867
 20
422.0565057920858
 30
0.0
  0
VERTEX
  5
3E9
330
3DE
100
AcDbEntity
  8
0
 62
     7
420
 16777215
370
     9
100
AcDbVertex
100
AcDb2dVertex
 10
313.3190812719567
 20
421.9411045469406
 30
0.0
  0
VERTEX
  5
3EA
330
3DE
100
AcDbEntity
  8
0
 62
     7
420
 16777215
370
     9
100
AcDbVertex
100
AcDb2dVertex
 10
313.4995537080722
 20
421.5565057916101
 30
0.0
  0
VERTEX
  5
3EB
330
3DE
100
AcDbEntity
  8
0
 62
     7
420
 16777215
370
     9
100
AcDbVertex
100
AcDb2dVertex
 10
313.4995555707173
 20
408.5565057916092
 30
0.0
  0
SEQEND
  5
3EC
330
3DE
100
AcDbEntity
  8
0
 62
     7
420
 16777215
370
     9
  0
ENDBLK
  5
3DD
330
3DA
100
AcDbEntity
  8
0
100
AcDbBlockEnd
  0
BLOCK
  5
3EF
330
3ED
100
AcDbEntity
  8
0
100
AcDbBlockBegin
  2
block 53
 70
     0
 10
0.0
 20
0.0
 30
0.0
  3
block 53
  1

  0
POLYLINE
  5
3F1
330
3ED
100
AcDbEntity
  8
0
 62
     7
420
 16777215
370
     9
100
AcDb2dPolyline
 66
     1
 10
0.0
 20
0.0
 30
0.0
  0
VERTEX
  5
3F2
330
3F1
100
AcDbEntity
  8
0
 62
     7
420
 16777215
370
     9
100
AcDbVertex
100
AcDb2dVertex
 10
294.4495555707181
 20
408.5565058099119
 30
0.0
  0
VERTEX
  5
3F3
330
3F1
100
AcDbEntity
  8
0
 62
     7
420
 16777215
370
     9
100
AcDbVertex
100
AcDb2dVertex
 10
294.3341543255665
 20
408.2369801216419
 30
0.0
  0
VERTEX
  5
3F4
330
3F1
100
AcDbEntity
  8
0
 62
     7
420
 16777215
370
     9
100
AcDbVertex
100
AcDb2dVertex
 10
293.949468627352
 20
408.0565058103912
 30
0.0
  0
VERTEX
  5
3F5
330
3F1
100
AcDbEntity
  8
0
 62
     7
420
 16777215
370
     9
100
AcDbVertex
100
AcDb2dVertex
 10
280.949555570236
 20
408.0565058228785
 30
0.0
  0
VERTEX
  5
3F6
330
3F1
100
AcDbEntity
  8
0
 62
     7
420
 16777215
370
     9
100
AcDbVertex
100
AcDb2dVertex
 10
280.630029881966
 20
408.1719070680283
 30
0.0
  0
VERTEX
  5
3F7
330
3F1
100
AcDbEntity
  8
0
 62
     7
420
 16777215
370
     9
100
AcDbVertex
100
AcDb2dVertex
 10
280.4495555707181
 20
408.5565058233624
 30
0.0
  0
VERTEX
  5
3F8
330
3F1
100
AcDbEntity
  8
0
 62
     7
420
 16777215
370
     9
100
AcDbVertex
100
AcDb2dVertex
 10
280.4495555832073
 20
421.5565058233587
 30
0.0
  0
VERTEX
  5
3F9
330
3F1
100
AcDbEntity
  8
0
 62
     7
420
 16777215
370
     9
100
AcDbVertex
100
AcDb2dVertex
 10
280.5649568283552
 20
421.8760315116306
 30
0.0
  0
VERTEX
  5
3FA
330
3F1
100
AcDbEntity
  8
0
 62
     7
420
 16777215
370
     9
100
AcDbVertex
100
AcDb2dVertex
 10
280.9494571967098
 20
422.0565058228822
 30
0.0
  0
VERTEX
  5
3FB
330
3F1
100
AcDbEntity
  8
0
 62
     7
420
 16777215
370
     9
100
AcDbVertex
100
AcDb2dVertex
 10
293.9495555836857
 20
422.0565058103912
 30
0.0
  0
VERTEX
  5
3FC
330
3F1
100
AcDbEntity
  8
0
 62
     7
420
 16777215
370
     9
100
AcDbVertex
100
AcDb2dVertex
 10
294.2690812719575
 20
421.9411045652378
 30
0.0
  0
VERTEX
  5
3FD
330
3F1
100
AcDbEntity
  8
0
 62
     7
420
 16777215
370
     9
100
AcDbVertex
100
AcDb2dVertex
 10
294.4495555832073
 20
421.5565058099073
 30
0.0
  0
VERTEX
  5
3FE
330
3F1
100
AcDbEntity
  8
0
 62
     7
420
 16777215
370
     9
100
AcDbVertex
100
AcDb2dVertex
 10
294.4495555707181
 20
408.5565058099119
 30
0.0
  0
SEQEND
  5
3FF
330
3F1
100
AcDbEntity
  8
0
 62
     7
420
 16777215
370
     9
  0
ENDBLK
  5
3F0
330
3ED
100
AcDbEntity
  8
0
100
AcDbBlockEnd
  0
BLOCK
  5
402
330
400
100
AcDbEntity
  8
0
100
AcDbBlockBegin
  2
block 54
 70
     0
 10
0.0
 20
0.0
 30
0.0
  3
block 54
  1

  0
POLYLINE
  5
404
330
400
100
AcDbEntity
  8
0
 62
     7
420
 16777215
370
     9
100
AcDb2dPolyline
 66
     1
 10
0.0
 20
0.0
 30
0.0
  0
VERTEX
  5
405
330
404
100
AcDbEntity
  8
0
 62
     7
420
 16777215
370
     9
100
AcDbVertex
100
AcDb2dVertex
 10
275.399555570717
 20
408.5565058282091
 30
0.0
  0
VERTEX
  5
406
330
404
100
AcDbEntity
  8
0
 62
     7
420
 16777215
370
     9
100
AcDbVertex
100
AcDb2dVertex
 10
275.2841543255672
 20
408.2369801399391
 30
0.0
  0
VERTEX
  5
407
330
404
100
AcDbEntity
  8
0
 62
     7
420
 16777215
370
     9
100
AcDbVertex
100
AcDb2dVertex
 10
274.8993473199789
 20
408.0565058286938
 30
0.0
  0
VERTEX
  5
408
330
404
100
AcDbEntity
  8
0
 62
     7
420
 16777215
370
     9
100
AcDbVertex
100
AcDb2dVertex
 10
261.8995555702368
 20
408.0565058411812
 30
0.0
  0
VERTEX
  5
409
330
404
100
AcDbEntity
  8
0
 62
     7
420
 16777215
370
     9
100
AcDbVertex
100
AcDb2dVertex
 10
261.5800298819668
 20
408.1719070863328
 30
0.0
  0
VERTEX
  5
40A
330
404
100
AcDbEntity
  8
0
 62
     7
420
 16777215
370
     9
100
AcDbVertex
100
AcDb2dVertex
 10
261.399555570717
 20
408.5565058416614
 30
0.0
  0
VERTEX
  5
40B
330
404
100
AcDbEntity
  8
0
 62
     7
420
 16777215
370
     9
100
AcDbVertex
100
AcDb2dVertex
 10
261.3995555832062
 20
421.5565058416641
 30
0.0
  0
VERTEX
  5
40C
330
404
100
AcDbEntity
  8
0
 62
     7
420
 16777215
370
     9
100
AcDbVertex
100
AcDb2dVertex
 10
261.5149568283559
 20
421.8760315299342
 30
0.0
  0
VERTEX
  5
40D
330
404
100
AcDbEntity
  8
0
 62
     7
420
 16777215
370
     9
100
AcDbVertex
100
AcDb2dVertex
 10
261.8993358893367
 20
422.0565058411848
 30
0.0
  0
VERTEX
  5
40E
330
404
100
AcDbEntity
  8
0
 62
     7
420
 16777215
370
     9
100
AcDbVertex
100
AcDb2dVertex
 10
274.8995555836864
 20
422.056505828692
 30
0.0
  0
VERTEX
  5
40F
330
404
100
AcDbEntity
  8
0
 62
     7
420
 16777215
370
     9
100
AcDbVertex
100
AcDb2dVertex
 10
275.2190812719564
 20
421.9411045835404
 30
0.0
  0
VERTEX
  5
410
330
404
100
AcDbEntity
  8
0
 62
     7
420
 16777215
370
     9
100
AcDbVertex
100
AcDb2dVertex
 10
275.3995495119052
 20
421.5565058282109
 30
0.0
  0
VERTEX
  5
411
330
404
100
AcDbEntity
  8
0
 62
     7
420
 16777215
370
     9
100
AcDbVertex
100
AcDb2dVertex
 10
275.399555570717
 20
408.5565058282091
 30
0.0
  0
SEQEND
  5
412
330
404
100
AcDbEntity
  8
0
 62
     7
420
 16777215
370
     9
  0
ENDBLK
  5
403
330
400
100
AcDbEntity
  8
0
100
AcDbBlockEnd
  0
BLOCK
  5
415
330
413
100
AcDbEntity
  8
0
100
AcDbBlockBegin
  2
block 55
 70
     0
 10
0.0
 20
0.0
 30
0.0
  3
block 55
  1

  0
POLYLINE
  5
417
330
413
100
AcDbEntity
  8
0
 62
     7
420
 16777215
370
     9
100
AcDb2dPolyline
 66
     1
 10
0.0
 20
0.0
 30
0.0
  0
VERTEX
  5
418
330
417
100
AcDbEntity
  8
0
 62
     7
420
 16777215
370
     9
100
AcDbVertex
100
AcDb2dVertex
 10
256.3495555707159
 20
408.5565058465145
 30
0.0
  0
VERTEX
  5
419
330
417
100
AcDbEntity
  8
0
 62
     7
420
 16777215
370
     9
100
AcDbVertex
100
AcDb2dVertex
 10
256.2341543255679
 20
408.2369801582427
 30
0.0
  0
VERTEX
  5
41A
330
417
100
AcDbEntity
  8
0
 62
     7
420
 16777215
370
     9
100
AcDbVertex
100
AcDb2dVertex
 10
255.849464431185
 20
408.056505846992
 30
0.0
  0
VERTEX
  5
41B
330
417
100
AcDbEntity
  8
0
 62
     7
420
 16777215
370
     9
100
AcDbVertex
100
AcDb2dVertex
 10
242.8495555702357
 20
408.0565058594821
 30
0.0
  0
VERTEX
  5
41C
330
417
100
AcDbEntity
  8
0
 62
     7
420
 16777215
370
     9
100
AcDbVertex
100
AcDb2dVertex
 10
242.5300298819657
 20
408.1719071046336
 30
0.0
  0
VERTEX
  5
41D
330
417
100
AcDbEntity
  8
0
 62
     7
420
 16777215
370
     9
100
AcDbVertex
100
AcDb2dVertex
 10
242.3495555707159
 20
408.5565058599632
 30
0.0
  0
VERTEX
  5
41E
330
417
100
AcDbEntity
  8
0
 62
     7
420
 16777215
370
     9
100
AcDbVertex
100
AcDb2dVertex
 10
242.3495555832069
 20
421.556505859965
 30
0.0
  0
VERTEX
  5
41F
330
417
100
AcDbEntity
  8
0
 62
     7
420
 16777215
370
     9
100
AcDbVertex
100
AcDb2dVertex
 10
242.4649568283567
 20
421.876031548235
 30
0.0
  0
VERTEX
  5
420
330
417
100
AcDbEntity
  8
0
 62
     7
420
 16777215
370
     9
100
AcDbVertex
100
AcDb2dVertex
 10
242.8494530005428
 20
422.0565058594821
 30
0.0
  0
VERTEX
  5
421
330
417
100
AcDbEntity
  8
0
 62
     7
420
 16777215
370
     9
100
AcDbVertex
100
AcDb2dVertex
 10
255.8495555836871
 20
422.0565058469965
 30
0.0
  0
VERTEX
  5
422
330
417
100
AcDbEntity
  8
0
 62
     7
420
 16777215
370
     9
100
AcDbVertex
100
AcDb2dVertex
 10
256.1690812719571
 20
421.9411046018431
 30
0.0
  0
VERTEX
  5
423
330
417
100
AcDbEntity
  8
0
 62
     7
420
 16777215
370
     9
100
AcDbVertex
100
AcDb2dVertex
 10
256.3495474138217
 20
421.5565058465163
 30
0.0
  0
VERTEX
  5
424
330
417
100
AcDbEntity
  8
0
 62
     7
420
 16777215
370
     9
100
AcDbVertex
100
AcDb2dVertex
 10
256.3495555707159
 20
408.5565058465145
 30
0.0
  0
SEQEND
  5
425
330
417
100
AcDbEntity
  8
0
 62
     7
420
 16777215
370
     9
  0
ENDBLK
  5
416
330
413
100
AcDbEntity
  8
0
100
AcDbBlockEnd
  0
BLOCK
  5
428
330
426
100
AcDbEntity
  8
0
100
AcDbBlockBegin
  2
block 56
 70
     0
 10
0.0
 20
0.0
 30
0.0
  3
block 56
  1

  0
POLYLINE
  5
42A
330
426
100
AcDbEntity
  8
0
 62
     7
420
 16777215
370
     9
100
AcDb2dPolyline
 66
     1
 10
0.0
 20
0.0
 30
0.0
  0
VERTEX
  5
42B
330
42A
100
AcDbEntity
  8
0
 62
     7
420
 16777215
370
     9
100
AcDbVertex
100
AcDb2dVertex
 10
237.2995555707166
 20
408.5565058648153
 30
0.0
  0
VERTEX
  5
42C
330
42A
100
AcDbEntity
  8
0
 62
     7
420
 16777215
370
     9
100
AcDbVertex
100
AcDb2dVertex
 10
237.1841543255669
 20
408.2369801765453
 30
0.0
  0
VERTEX
  5
42D
330
42A
100
AcDbEntity
  8
0
 62
     7
420
 16777215
370
     9
100
AcDbVertex
100
AcDb2dVertex
 10
236.7994623331015
 20
408.0565058652946
 30
0.0
  0
VERTEX
  5
42E
330
42A
100
AcDbEntity
  8
0
 62
     7
420
 16777215
370
     9
100
AcDbVertex
100
AcDb2dVertex
 10
223.7995555702364
 20
408.0565058777875
 30
0.0
  0
VERTEX
  5
42F
330
42A
100
AcDbEntity
  8
0
 62
     7
420
 16777215
370
     9
100
AcDbVertex
100
AcDb2dVertex
 10
223.4800298819646
 20
408.1719071229381
 30
0.0
  0
VERTEX
  5
430
330
42A
100
AcDbEntity
  8
0
 62
     7
420
 16777215
370
     9
100
AcDbVertex
100
AcDb2dVertex
 10
223.2995555707166
 20
408.5565058782677
 30
0.0
  0
VERTEX
  5
431
330
42A
100
AcDbEntity
  8
0
 62
     7
420
 16777215
370
     9
100
AcDbVertex
100
AcDb2dVertex
 10
223.2995555832076
 20
421.5565058782677
 30
0.0
  0
VERTEX
  5
432
330
42A
100
AcDbEntity
  8
0
 62
     7
420
 16777215
370
     9
100
AcDbVertex
100
AcDb2dVertex
 10
223.4149568283556
 20
421.8760315665349
 30
0.0
  0
VERTEX
  5
433
330
42A
100
AcDbEntity
  8
0
 62
     7
420
 16777215
370
     9
100
AcDbVertex
100
AcDb2dVertex
 10
223.7994509024593
 20
422.0565058777856
 30
0.0
  0
VERTEX
  5
434
330
42A
100
AcDbEntity
  8
0
 62
     7
420
 16777215
370
     9
100
AcDbVertex
100
AcDb2dVertex
 10
236.799555583686
 20
422.0565058653001
 30
0.0
  0
VERTEX
  5
435
330
42A
100
AcDbEntity
  8
0
 62
     7
420
 16777215
370
     9
100
AcDbVertex
100
AcDb2dVertex
 10
237.1190812719578
 20
421.9411046201467
 30
0.0
  0
VERTEX
  5
436
330
42A
100
AcDbEntity
  8
0
 62
     7
420
 16777215
370
     9
100
AcDbVertex
100
AcDb2dVertex
 10
237.2995555832076
 20
421.5565058648172
 30
0.0
  0
VERTEX
  5
437
330
42A
100
AcDbEntity
  8
0
 62
     7
420
 16777215
370
     9
100
AcDbVertex
100
AcDb2dVertex
 10
237.2995555707166
 20
408.5565058648153
 30
0.0
  0
SEQEND
  5
438
330
42A
100
AcDbEntity
  8
0
 62
     7
420
 16777215
370
     9
  0
ENDBLK
  5
429
330
426
100
AcDbEntity
  8
0
100
AcDbBlockEnd
  0
BLOCK
  5
43B
330
439
100
AcDbEntity
  8
0
100
AcDbBlockBegin
  2
block 57
 70
     0
 10
0.0
 20
0.0
 30
0.0
  3
block 57
  1

  0
POLYLINE
  5
43D
330
439
100
AcDbEntity
  8
0
 62
     7
420
 16777215
370
     9
100
AcDb2dPolyline
 66
     1
 10
0.0
 20
0.0
 30
0.0
  0
VERTEX
  5
43E
330
43D
100
AcDbEntity
  8
0
 62
     7
420
 16777215
370
     9
100
AcDbVertex
100
AcDb2dVertex
 10
218.2495555707173
 20
408.556505883118
 30
0.0
  0
VERTEX
  5
43F
330
43D
100
AcDbEntity
  8
0
 62
     7
420
 16777215
370
     9
100
AcDbVertex
100
AcDb2dVertex
 10
218.1341543255658
 20
408.236980194848
 30
0.0
  0
VERTEX
  5
440
330
43D
100
AcDbEntity
  8
0
 62
     7
420
 16777215
370
     9
100
AcDbVertex
100
AcDb2dVertex
 10
217.749460235018
 20
408.0565058835964
 30
0.0
  0
VERTEX
  5
441
330
43D
100
AcDbEntity
  8
0
 62
     7
420
 16777215
370
     9
100
AcDbVertex
100
AcDb2dVertex
 10
204.7495555702353
 20
408.0565058960874
 30
0.0
  0
VERTEX
  5
442
330
43D
100
AcDbEntity
  8
0
 62
     7
420
 16777215
370
     9
100
AcDbVertex
100
AcDb2dVertex
 10
204.4300298819653
 20
408.1719071412363
 30
0.0
  0
VERTEX
  5
443
330
43D
100
AcDbEntity
  8
0
 62
     7
420
 16777215
370
     9
100
AcDbVertex
100
AcDb2dVertex
 10
204.2495555707173
 20
408.5565058965713
 30
0.0
  0
VERTEX
  5
444
330
43D
100
AcDbEntity
  8
0
 62
     7
420
 16777215
370
     9
100
AcDbVertex
100
AcDb2dVertex
 10
204.2495555832083
 20
421.5565058965676
 30
0.0
  0
VERTEX
  5
445
330
43D
100
AcDbEntity
  8
0
 62
     7
420
 16777215
370
     9
100
AcDbVertex
100
AcDb2dVertex
 10
204.3649568283563
 20
421.8760315848358
 30
0.0
  0
VERTEX
  5
446
330
43D
100
AcDbEntity
  8
0
 62
     7
420
 16777215
370
     9
100
AcDbVertex
100
AcDb2dVertex
 10
204.7494488043758
 20
422.0565058960865
 30
0.0
  0
VERTEX
  5
447
330
43D
100
AcDbEntity
  8
0
 62
     7
420
 16777215
370
     9
100
AcDbVertex
100
AcDb2dVertex
 10
217.7495555836849
 20
422.0565058835955
 30
0.0
  0
VERTEX
  5
448
330
43D
100
AcDbEntity
  8
0
 62
     7
420
 16777215
370
     9
100
AcDbVertex
100
AcDb2dVertex
 10
218.0690812719567
 20
421.9411046384503
 30
0.0
  0
VERTEX
  5
449
330
43D
100
AcDbEntity
  8
0
 62
     7
420
 16777215
370
     9
100
AcDbVertex
100
AcDb2dVertex
 10
218.2495555832083
 20
421.5565058831153
 30
0.0
  0
VERTEX
  5
44A
330
43D
100
AcDbEntity
  8
0
 62
     7
420
 16777215
370
     9
100
AcDbVertex
100
AcDb2dVertex
 10
218.2495555707173
 20
408.556505883118
 30
0.0
  0
SEQEND
  5
44B
330
43D
100
AcDbEntity
  8
0
 62
     7
420
 16777215
370
     9
  0
ENDBLK
  5
43C
330
439
100
AcDbEntity
  8
0
100
AcDbBlockEnd
  0
BLOCK
  5
44E
330
44C
100
AcDbEntity
  8
0
100
AcDbBlockBegin
  2
block 58
 70
     0
 10
0.0
 20
0.0
 30
0.0
  3
block 58
  1

  0
POLYLINE
  5
450
330
44C
100
AcDbEntity
  8
0
 62
     7
420
 16777215
370
     9
100
AcDb2dPolyline
 66
     1
 10
0.0
 20
0.0
 30
0.0
  0
VERTEX
  5
451
330
450
100
AcDbEntity
  8
0
 62
     7
420
 16777215
370
     9
100
AcDbVertex
100
AcDb2dVertex
 10
199.1995555707181
 20
408.5565059014216
 30
0.0
  0
VERTEX
  5
452
330
450
100
AcDbEntity
  8
0
 62
     7
420
 16777215
370
     9
100
AcDbVertex
100
AcDb2dVertex
 10
199.0841543255665
 20
408.2369802131479
 30
0.0
  0
VERTEX
  5
453
330
450
100
AcDbEntity
  8
0
 62
     7
420
 16777215
370
     9
100
AcDbVertex
100
AcDb2dVertex
 10
198.6994581369345
 20
408.0565059019027
 30
0.0
  0
VERTEX
  5
454
330
450
100
AcDbEntity
  8
0
 62
     7
420
 16777215
370
     9
100
AcDbVertex
100
AcDb2dVertex
 10
185.699555570236
 20
408.0565059143846
 30
0.0
  0
VERTEX
  5
455
330
450
100
AcDbEntity
  8
0
 62
     7
420
 16777215
370
     9
100
AcDbVertex
100
AcDb2dVertex
 10
185.380029881966
 20
408.1719071595362
 30
0.0
  0
VERTEX
  5
456
330
450
100
AcDbEntity
  8
0
 62
     7
420
 16777215
370
     9
100
AcDbVertex
100
AcDb2dVertex
 10
185.1995555707181
 20
408.5565059148721
 30
0.0
  0
VERTEX
  5
457
330
450
100
AcDbEntity
  8
0
 62
     7
420
 16777215
370
     9
100
AcDbVertex
100
AcDb2dVertex
 10
185.1995555832073
 20
421.5565059148685
 30
0.0
  0
VERTEX
  5
458
330
450
100
AcDbEntity
  8
0
 62
     7
420
 16777215
370
     9
100
AcDbVertex
100
AcDb2dVertex
 10
185.3149568283552
 20
421.8760316031403
 30
0.0
  0
VERTEX
  5
459
330
450
100
AcDbEntity
  8
0
 62
     7
420
 16777215
370
     9
100
AcDbVertex
100
AcDb2dVertex
 10
185.6994467062923
 20
422.056505914391
 30
0.0
  0
VERTEX
  5
45A
330
450
100
AcDbEntity
  8
0
 62
     7
420
 16777215
370
     9
100
AcDbVertex
100
AcDb2dVertex
 10
198.6995555836875
 20
422.0565059019009
 30
0.0
  0
VERTEX
  5
45B
330
450
100
AcDbEntity
  8
0
 62
     7
420
 16777215
370
     9
100
AcDbVertex
100
AcDb2dVertex
 10
199.0190812719575
 20
421.9411046567493
 30
0.0
  0
VERTEX
  5
45C
330
450
100
AcDbEntity
  8
0
 62
     7
420
 16777215
370
     9
100
AcDbVertex
100
AcDb2dVertex
 10
199.1995555832073
 20
421.5565059014179
 30
0.0
  0
VERTEX
  5
45D
330
450
100
AcDbEntity
  8
0
 62
     7
420
 16777215
370
     9
100
AcDbVertex
100
AcDb2dVertex
 10
199.1995555707181
 20
408.5565059014216
 30
0.0
  0
SEQEND
  5
45E
330
450
100
AcDbEntity
  8
0
 62
     7
420
 16777215
370
     9
  0
ENDBLK
  5
44F
330
44C
100
AcDbEntity
  8
0
100
AcDbBlockEnd
  0
BLOCK
  5
461
330
45F
100
AcDbEntity
  8
0
100
AcDbBlockBegin
  2
block 59
 70
     0
 10
0.0
 20
0.0
 30
0.0
  3
block 59
  1

  0
POLYLINE
  5
463
330
45F
100
AcDbEntity
  8
0
 62
     7
420
 16777215
370
     9
100
AcDb2dPolyline
 66
     1
 10
0.0
 20
0.0
 30
0.0
  0
VERTEX
  5
464
330
463
100
AcDbEntity
  8
0
 62
     7
420
 16777215
370
     9
100
AcDbVertex
100
AcDb2dVertex
 10
175.3870555707181
 20
408.5565059242981
 30
0.0
  0
VERTEX
  5
465
330
463
100
AcDbEntity
  8
0
 62
     7
420
 16777215
370
     9
100
AcDbVertex
100
AcDb2dVertex
 10
175.2716543255665
 20
408.2369802360263
 30
0.0
  0
VERTEX
  5
466
330
463
100
AcDbEntity
  8
0
 62
     7
420
 16777215
370
     9
100
AcDbVertex
100
AcDb2dVertex
 10
174.8870449212973
 20
408.0565059247756
 30
0.0
  0
VERTEX
  5
467
330
463
100
AcDbEntity
  8
0
 62
     7
420
 16777215
370
     9
100
AcDbVertex
100
AcDb2dVertex
 10
161.887055570236
 20
408.0565059372675
 30
0.0
  0
VERTEX
  5
468
330
463
100
AcDbEntity
  8
0
 62
     7
420
 16777215
370
     9
100
AcDbVertex
100
AcDb2dVertex
 10
161.567529881966
 20
408.1719071824145
 30
0.0
  0
VERTEX
  5
469
330
463
100
AcDbEntity
  8
0
 62
     7
420
 16777215
370
     9
100
AcDbVertex
100
AcDb2dVertex
 10
161.3870555707181
 20
408.5565059377495
 30
0.0
  0
VERTEX
  5
46A
330
463
100
AcDbEntity
  8
0
 62
     7
420
 16777215
370
     9
100
AcDbVertex
100
AcDb2dVertex
 10
161.3870555832073
 20
421.5565059377459
 30
0.0
  0
VERTEX
  5
46B
330
463
100
AcDbEntity
  8
0
 62
     7
420
 16777215
370
     9
100
AcDbVertex
100
AcDb2dVertex
 10
161.5024568283552
 20
421.8760316260177
 30
0.0
  0
VERTEX
  5
46C
330
463
100
AcDbEntity
  8
0
 62
     7
420
 16777215
370
     9
100
AcDbVertex
100
AcDb2dVertex
 10
161.8870334906551
 20
422.0565059372675
 30
0.0
  0
VERTEX
  5
46D
330
463
100
AcDbEntity
  8
0
 62
     7
420
 16777215
370
     9
100
AcDbVertex
100
AcDb2dVertex
 10
174.8870555836875
 20
422.0565059247756
 30
0.0
  0
VERTEX
  5
46E
330
463
100
AcDbEntity
  8
0
 62
     7
420
 16777215
370
     9
100
AcDbVertex
100
AcDb2dVertex
 10
175.2065812719575
 20
421.9411046796295
 30
0.0
  0
VERTEX
  5
46F
330
463
100
AcDbEntity
  8
0
 62
     7
420
 16777215
370
     9
100
AcDbVertex
100
AcDb2dVertex
 10
175.3870555832054
 20
421.5565059243008
 30
0.0
  0
VERTEX
  5
470
330
463
100
AcDbEntity
  8
0
 62
     7
420
 16777215
370
     9
100
AcDbVertex
100
AcDb2dVertex
 10
175.3870555707181
 20
408.5565059242981
 30
0.0
  0
SEQEND
  5
471
330
463
100
AcDbEntity
  8
0
 62
     7
420
 16777215
370
     9
  0
ENDBLK
  5
462
330
45F
100
AcDbEntity
  8
0
100
AcDbBlockEnd
  0
BLOCK
  5
474
330
472
100
AcDbEntity
  8
0
100
AcDbBlockBegin
  2
block 60
 70
     0
 10
0.0
 20
0.0
 30
0.0
  3
block 60
  1

  0
POLYLINE
  5
476
330
472
100
AcDbEntity
  8
0
 62
     7
420
 16777215
370
     9
100
AcDb2dPolyline
 66
     1
 10
0.0
 20
0.0
 30
0.0
  0
VERTEX
  5
477
330
476
100
AcDbEntity
  8
0
 62
     7
420
 16777215
370
     9
100
AcDbVertex
100
AcDb2dVertex
 10
456.37455558902
 20
427.6065056543448
 30
0.0
  0
VERTEX
  5
478
330
476
100
AcDbEntity
  8
0
 62
     7
420
 16777215
370
     9
100
AcDbVertex
100
AcDb2dVertex
 10
456.2591543438684
 20
427.2869799660721
 30
0.0
  0
VERTEX
  5
479
330
476
100
AcDbEntity
  8
0
 62
     7
420
 16777215
370
     9
100
AcDbVertex
100
AcDb2dVertex
 10
455.8745460840073
 20
427.106505654825
 30
0.0
  0
VERTEX
  5
47A
330
476
100
AcDbEntity
  8
0
 62
     7
420
 16777215
370
     9
100
AcDbVertex
100
AcDb2dVertex
 10
442.8745555885398
 20
427.1065056673124
 30
0.0
  0
VERTEX
  5
47B
330
476
100
AcDbEntity
  8
0
 62
     7
420
 16777215
370
     9
100
AcDbVertex
100
AcDb2dVertex
 10
442.555029900268
 20
427.2219069124621
 30
0.0
  0
VERTEX
  5
47C
330
476
100
AcDbEntity
  8
0
 62
     7
420
 16777215
370
     9
100
AcDbVertex
100
AcDb2dVertex
 10
442.3745555890182
 20
427.6065056677944
 30
0.0
  0
VERTEX
  5
47D
330
476
100
AcDbEntity
  8
0
 62
     7
420
 16777215
370
     9
100
AcDbVertex
100
AcDb2dVertex
 10
442.3745556015092
 20
440.6065056677944
 30
0.0
  0
VERTEX
  5
47E
330
476
100
AcDbEntity
  8
0
 62
     7
420
 16777215
370
     9
100
AcDbVertex
100
AcDb2dVertex
 10
442.4899568466608
 20
440.9260313560644
 30
0.0
  0
VERTEX
  5
47F
330
476
100
AcDbEntity
  8
0
 62
     7
420
 16777215
370
     9
100
AcDbVertex
100
AcDb2dVertex
 10
442.8745346533669
 20
441.1065056673106
 30
0.0
  0
VERTEX
  5
480
330
476
100
AcDbEntity
  8
0
 62
     7
420
 16777215
370
     9
100
AcDbVertex
100
AcDb2dVertex
 10
455.8745556019894
 20
441.106505654825
 30
0.0
  0
VERTEX
  5
481
330
476
100
AcDbEntity
  8
0
 62
     7
420
 16777215
370
     9
100
AcDbVertex
100
AcDb2dVertex
 10
456.1940812902576
 20
440.9911044096743
 30
0.0
  0
VERTEX
  5
482
330
476
100
AcDbEntity
  8
0
 62
     7
420
 16777215
370
     9
100
AcDbVertex
100
AcDb2dVertex
 10
456.3745556015092
 20
440.6065056543448
 30
0.0
  0
VERTEX
  5
483
330
476
100
AcDbEntity
  8
0
 62
     7
420
 16777215
370
     9
100
AcDbVertex
100
AcDb2dVertex
 10
456.37455558902
 20
427.6065056543448
 30
0.0
  0
SEQEND
  5
484
330
476
100
AcDbEntity
  8
0
 62
     7
420
 16777215
370
     9
  0
ENDBLK
  5
475
330
472
100
AcDbEntity
  8
0
100
AcDbBlockEnd
  0
BLOCK
  5
487
330
485
100
AcDbEntity
  8
0
100
AcDbBlockBegin
  2
block 61
 70
     0
 10
0.0
 20
0.0
 30
0.0
  3
block 61
  1

  0
POLYLINE
  5
489
330
485
100
AcDbEntity
  8
0
 62
     7
420
 16777215
370
     9
100
AcDb2dPolyline
 66
     1
 10
0.0
 20
0.0
 30
0.0
  0
VERTEX
  5
48A
330
489
100
AcDbEntity
  8
0
 62
     7
420
 16777215
370
     9
100
AcDbVertex
100
AcDb2dVertex
 10
437.3245555890171
 20
427.6065056726457
 30
0.0
  0
VERTEX
  5
48B
330
489
100
AcDbEntity
  8
0
 62
     7
420
 16777215
370
     9
100
AcDbVertex
100
AcDb2dVertex
 10
437.2091543438673
 20
427.2869799843756
 30
0.0
  0
VERTEX
  5
48C
330
489
100
AcDbEntity
  8
0
 62
     7
420
 16777215
370
     9
100
AcDbVertex
100
AcDb2dVertex
 10
436.8244247766343
 20
427.106505673125
 30
0.0
  0
VERTEX
  5
48D
330
489
100
AcDbEntity
  8
0
 62
     7
420
 16777215
370
     9
100
AcDbVertex
100
AcDb2dVertex
 10
436.2375555885374
 20
427.1065056736916
 30
0.0
  0
VERTEX
  5
48E
330
489
100
AcDbEntity
  8
0
 62
     7
420
 16777215
370
     9
100
AcDbVertex
100
AcDb2dVertex
 10
436.2375555870967
 20
425.6065056736916
 30
0.0
  0
VERTEX
  5
48F
330
489
100
AcDbEntity
  8
0
 62
     7
420
 16777215
370
     9
100
AcDbVertex
100
AcDb2dVertex
 10
436.1221543419488
 20
425.2869799854197
 30
0.0
  0
VERTEX
  5
490
330
489
100
AcDbEntity
  8
0
 62
     7
420
 16777215
370
     9
100
AcDbVertex
100
AcDb2dVertex
 10
435.7374744725894
 20
425.1065056741709
 30
0.0
  0
VERTEX
  5
491
330
489
100
AcDbEntity
  8
0
 62
     7
420
 16777215
370
     9
100
AcDbVertex
100
AcDb2dVertex
 10
429.7375555866165
 20
425.1065056799334
 30
0.0
  0
VERTEX
  5
492
330
489
100
AcDbEntity
  8
0
 62
     7
420
 16777215
370
     9
100
AcDbVertex
100
AcDb2dVertex
 10
429.4180298983465
 20
425.2219069250841
 30
0.0
  0
VERTEX
  5
493
330
489
100
AcDbEntity
  8
0
 62
     7
420
 16777215
370
     9
100
AcDbVertex
100
AcDb2dVertex
 10
429.2375555870967
 20
425.6065056804136
 30
0.0
  0
VERTEX
  5
494
330
489
100
AcDbEntity
  8
0
 62
     7
420
 16777215
370
     9
100
AcDbVertex
100
AcDb2dVertex
 10
429.2375555885374
 20
427.1065056804136
 30
0.0
  0
VERTEX
  5
495
330
489
100
AcDbEntity
  8
0
 62
     7
420
 16777215
370
     9
100
AcDbVertex
100
AcDb2dVertex
 10
412.3615555885372
 20
427.106505696629
 30
0.0
  0
VERTEX
  5
496
330
489
100
AcDbEntity
  8
0
 62
     7
420
 16777215
370
     9
100
AcDbVertex
100
AcDb2dVertex
 10
412.3615555870965
 20
425.606505696629
 30
0.0
  0
VERTEX
  5
497
330
489
100
AcDbEntity
  8
0
 62
     7
420
 16777215
370
     9
100
AcDbVertex
100
AcDb2dVertex
 10
412.2461543419486
 20
425.286980008359
 30
0.0
  0
VERTEX
  5
498
330
489
100
AcDbEntity
  8
0
 62
     7
420
 16777215
370
     9
100
AcDbVertex
100
AcDb2dVertex
 10
411.8615227056216
 20
425.1065056971083
 30
0.0
  0
VERTEX
  5
499
330
489
100
AcDbEntity
  8
0
 62
     7
420
 16777215
370
     9
100
AcDbVertex
100
AcDb2dVertex
 10
405.8615555866163
 20
425.1065057028709
 30
0.0
  0
VERTEX
  5
49A
330
489
100
AcDbEntity
  8
0
 62
     7
420
 16777215
370
     9
100
AcDbVertex
100
AcDb2dVertex
 10
405.5420298983463
 20
425.2219069480225
 30
0.0
  0
VERTEX
  5
49B
330
489
100
AcDbEntity
  8
0
 62
     7
420
 16777215
370
     9
100
AcDbVertex
100
AcDb2dVertex
 10
405.3615555870965
 20
425.606505703352
 30
0.0
  0
VERTEX
  5
49C
330
489
100
AcDbEntity
  8
0
 62
     7
420
 16777215
370
     9
100
AcDbVertex
100
AcDb2dVertex
 10
405.3615555885372
 20
427.1065057033502
 30
0.0
  0
VERTEX
  5
49D
330
489
100
AcDbEntity
  8
0
 62
     7
420
 16777215
370
     9
100
AcDbVertex
100
AcDb2dVertex
 10
404.7745555885376
 20
427.1065057039159
 30
0.0
  0
VERTEX
  5
49E
330
489
100
AcDbEntity
  8
0
 62
     7
420
 16777215
370
     9
100
AcDbVertex
100
AcDb2dVertex
 10
404.4550299002694
 20
427.2219069490693
 30
0.0
  0
VERTEX
  5
49F
330
489
100
AcDbEntity
  8
0
 62
     7
420
 16777215
370
     9
100
AcDbVertex
100
AcDb2dVertex
 10
404.2745555890197
 20
427.6065057043998
 30
0.0
  0
VERTEX
  5
4A0
330
489
100
AcDbEntity
  8
0
 62
     7
420
 16777215
370
     9
100
AcDbVertex
100
AcDb2dVertex
 10
404.274555601507
 20
440.6065057043979
 30
0.0
  0
VERTEX
  5
4A1
330
489
100
AcDbEntity
  8
0
 62
     7
420
 16777215
370
     9
100
AcDbVertex
100
AcDb2dVertex
 10
404.3899568466586
 20
440.9260313926679
 30
0.0
  0
VERTEX
  5
4A2
330
489
100
AcDbEntity
  8
0
 62
     7
420
 16777215
370
     9
100
AcDbVertex
100
AcDb2dVertex
 10
404.7745304571999
 20
441.1065057039159
 30
0.0
  0
VERTEX
  5
4A3
330
489
100
AcDbEntity
  8
0
 62
     7
420
 16777215
370
     9
100
AcDbVertex
100
AcDb2dVertex
 10
436.8245556019883
 20
441.1065056731286
 30
0.0
  0
VERTEX
  5
4A4
330
489
100
AcDbEntity
  8
0
 62
     7
420
 16777215
370
     9
100
AcDbVertex
100
AcDb2dVertex
 10
437.1440812902565
 20
440.991104427977
 30
0.0
  0
VERTEX
  5
4A5
330
489
100
AcDbEntity
  8
0
 62
     7
420
 16777215
370
     9
100
AcDbVertex
100
AcDb2dVertex
 10
437.3245556015063
 20
440.6065056726457
 30
0.0
  0
VERTEX
  5
4A6
330
489
100
AcDbEntity
  8
0
 62
     7
420
 16777215
370
     9
100
AcDbVertex
100
AcDb2dVertex
 10
437.3245555890171
 20
427.6065056726457
 30
0.0
  0
SEQEND
  5
4A7
330
489
100
AcDbEntity
  8
0
 62
     7
420
 16777215
370
     9
  0
ENDBLK
  5
488
330
485
100
AcDbEntity
  8
0
100
AcDbBlockEnd
  0
BLOCK
  5
4AA
330
4A8
100
AcDbEntity
  8
0
100
AcDbBlockBegin
  2
block 62
 70
     0
 10
0.0
 20
0.0
 30
0.0
  3
block 62
  1

  0
POLYLINE
  5
4AC
330
4A8
100
AcDbEntity
  8
0
 62
     7
420
 16777215
370
     9
100
AcDb2dPolyline
 66
     1
 10
0.0
 20
0.0
 30
0.0
  0
VERTEX
  5
4AD
330
4AC
100
AcDbEntity
  8
0
 62
     7
420
 16777215
370
     9
100
AcDbVertex
100
AcDb2dVertex
 10
399.2245555890167
 20
427.6065057092519
 30
0.0
  0
VERTEX
  5
4AE
330
4AC
100
AcDbEntity
  8
0
 62
     7
420
 16777215
370
     9
100
AcDbVertex
100
AcDb2dVertex
 10
399.109154343867
 20
427.2869800209819
 30
0.0
  0
VERTEX
  5
4AF
330
4AC
100
AcDbEntity
  8
0
 62
     7
420
 16777215
370
     9
100
AcDbVertex
100
AcDb2dVertex
 10
398.7244205804673
 20
427.1065057097312
 30
0.0
  0
VERTEX
  5
4B0
330
4AC
100
AcDbEntity
  8
0
 62
     7
420
 16777215
370
     9
100
AcDbVertex
100
AcDb2dVertex
 10
385.7245555885384
 20
427.1065057222195
 30
0.0
  0
VERTEX
  5
4B1
330
4AC
100
AcDbEntity
  8
0
 62
     7
420
 16777215
370
     9
100
AcDbVertex
100
AcDb2dVertex
 10
385.4050299002665
 20
427.2219069673674
 30
0.0
  0
VERTEX
  5
4B2
330
4AC
100
AcDbEntity
  8
0
 62
     7
420
 16777215
370
     9
100
AcDbVertex
100
AcDb2dVertex
 10
385.2245555890186
 20
427.606505722697
 30
0.0
  0
VERTEX
  5
4B3
330
4AC
100
AcDbEntity
  8
0
 62
     7
420
 16777215
370
     9
100
AcDbVertex
100
AcDb2dVertex
 10
385.2245556015077
 20
440.6065057226988
 30
0.0
  0
VERTEX
  5
4B4
330
4AC
100
AcDbEntity
  8
0
 62
     7
420
 16777215
370
     9
100
AcDbVertex
100
AcDb2dVertex
 10
385.3399568466593
 20
440.9260314109688
 30
0.0
  0
VERTEX
  5
4B5
330
4AC
100
AcDbEntity
  8
0
 62
     7
420
 16777215
370
     9
100
AcDbVertex
100
AcDb2dVertex
 10
385.7244091498269
 20
441.1065057222213
 30
0.0
  0
VERTEX
  5
4B6
330
4AC
100
AcDbEntity
  8
0
 62
     7
420
 16777215
370
     9
100
AcDbVertex
100
AcDb2dVertex
 10
398.7245556019898
 20
441.1065057097294
 30
0.0
  0
VERTEX
  5
4B7
330
4AC
100
AcDbEntity
  8
0
 62
     7
420
 16777215
370
     9
100
AcDbVertex
100
AcDb2dVertex
 10
399.0440812902561
 20
440.9911044645796
 30
0.0
  0
VERTEX
  5
4B8
330
4AC
100
AcDbEntity
  8
0
 62
     7
420
 16777215
370
     9
100
AcDbVertex
100
AcDb2dVertex
 10
399.2245556015077
 20
440.6065057092501
 30
0.0
  0
VERTEX
  5
4B9
330
4AC
100
AcDbEntity
  8
0
 62
     7
420
 16777215
370
     9
100
AcDbVertex
100
AcDb2dVertex
 10
399.2245555890167
 20
427.6065057092519
 30
0.0
  0
SEQEND
  5
4BA
330
4AC
100
AcDbEntity
  8
0
 62
     7
420
 16777215
370
     9
  0
ENDBLK
  5
4AB
330
4A8
100
AcDbEntity
  8
0
100
AcDbBlockEnd
  0
BLOCK
  5
4BD
330
4BB
100
AcDbEntity
  8
0
100
AcDbBlockBegin
  2
block 63
 70
     0
 10
0.0
 20
0.0
 30
0.0
  3
block 63
  1

  0
POLYLINE
  5
4BF
330
4BB
100
AcDbEntity
  8
0
 62
     7
420
 16777215
370
     9
100
AcDb2dPolyline
 66
     1
 10
0.0
 20
0.0
 30
0.0
  0
VERTEX
  5
4C0
330
4BF
100
AcDbEntity
  8
0
 62
     7
420
 16777215
370
     9
100
AcDbVertex
100
AcDb2dVertex
 10
380.1745555890175
 20
427.6065057275482
 30
0.0
  0
VERTEX
  5
4C1
330
4BF
100
AcDbEntity
  8
0
 62
     7
420
 16777215
370
     9
100
AcDbVertex
100
AcDb2dVertex
 10
380.0591543438677
 20
427.2869800392773
 30
0.0
  0
VERTEX
  5
4C2
330
4BF
100
AcDbEntity
  8
0
 62
     7
420
 16777215
370
     9
100
AcDbVertex
100
AcDb2dVertex
 10
379.6745376916733
 20
427.1065057280321
 30
0.0
  0
VERTEX
  5
4C3
330
4BF
100
AcDbEntity
  8
0
 62
     7
420
 16777215
370
     9
100
AcDbVertex
100
AcDb2dVertex
 10
366.6745555885391
 20
427.1065057405194
 30
0.0
  0
VERTEX
  5
4C4
330
4BF
100
AcDbEntity
  8
0
 62
     7
420
 16777215
370
     9
100
AcDbVertex
100
AcDb2dVertex
 10
366.3550299002673
 20
427.221906985671
 30
0.0
  0
VERTEX
  5
4C5
330
4BF
100
AcDbEntity
  8
0
 62
     7
420
 16777215
370
     9
100
AcDbVertex
100
AcDb2dVertex
 10
366.1745555890175
 20
427.6065057409996
 30
0.0
  0
VERTEX
  5
4C6
330
4BF
100
AcDbEntity
  8
0
 62
     7
420
 16777215
370
     9
100
AcDbVertex
100
AcDb2dVertex
 10
366.1745556015048
 20
440.6065057410015
 30
0.0
  0
VERTEX
  5
4C7
330
4BF
100
AcDbEntity
  8
0
 62
     7
420
 16777215
370
     9
100
AcDbVertex
100
AcDb2dVertex
 10
366.2899568466601
 20
440.9260314292742
 30
0.0
  0
VERTEX
  5
4C8
330
4BF
100
AcDbEntity
  8
0
 62
     7
420
 16777215
370
     9
100
AcDbVertex
100
AcDb2dVertex
 10
366.674526261033
 20
441.1065057405194
 30
0.0
  0
VERTEX
  5
4C9
330
4BF
100
AcDbEntity
  8
0
 62
     7
420
 16777215
370
     9
100
AcDbVertex
100
AcDb2dVertex
 10
379.6745556019887
 20
441.1065057280321
 30
0.0
  0
VERTEX
  5
4CA
330
4BF
100
AcDbEntity
  8
0
 62
     7
420
 16777215
370
     9
100
AcDbVertex
100
AcDb2dVertex
 10
379.9940812902569
 20
440.9911044828805
 30
0.0
  0
VERTEX
  5
4CB
330
4BF
100
AcDbEntity
  8
0
 62
     7
420
 16777215
370
     9
100
AcDbVertex
100
AcDb2dVertex
 10
380.1745556015048
 20
440.6065057275509
 30
0.0
  0
VERTEX
  5
4CC
330
4BF
100
AcDbEntity
  8
0
 62
     7
420
 16777215
370
     9
100
AcDbVertex
100
AcDb2dVertex
 10
380.1745555890175
 20
427.6065057275482
 30
0.0
  0
SEQEND
  5
4CD
330
4BF
100
AcDbEntity
  8
0
 62
     7
420
 16777215
370
     9
  0
ENDBLK
  5
4BE
330
4BB
100
AcDbEntity
  8
0
100
AcDbBlockEnd
  0
BLOCK
  5
4D0
330
4CE
100
AcDbEntity
  8
0
100
AcDbBlockBegin
  2
block 64
 70
     0
 10
0.0
 20
0.0
 30
0.0
  3
block 64
  1

  0
POLYLINE
  5
4D2
330
4CE
100
AcDbEntity
  8
0
 62
     7
420
 16777215
370
     9
100
AcDb2dPolyline
 66
     1
 10
0.0
 20
0.0
 30
0.0
  0
VERTEX
  5
4D3
330
4D2
100
AcDbEntity
  8
0
 62
     7
420
 16777215
370
     9
100
AcDbVertex
100
AcDb2dVertex
 10
361.12455558902
 20
427.6065057458527
 30
0.0
  0
VERTEX
  5
4D4
330
4D2
100
AcDbEntity
  8
0
 62
     7
420
 16777215
370
     9
100
AcDbVertex
100
AcDb2dVertex
 10
361.0091543438684
 20
427.2869800575818
 30
0.0
  0
VERTEX
  5
4D5
330
4D2
100
AcDbEntity
  8
0
 62
     7
420
 16777215
370
     9
100
AcDbVertex
100
AcDb2dVertex
 10
360.6244163843003
 20
427.1065057463347
 30
0.0
  0
VERTEX
  5
4D6
330
4D2
100
AcDbEntity
  8
0
 62
     7
420
 16777215
370
     9
100
AcDbVertex
100
AcDb2dVertex
 10
347.6245555885398
 20
427.1065057588221
 30
0.0
  0
VERTEX
  5
4D7
330
4D2
100
AcDbEntity
  8
0
 62
     7
420
 16777215
370
     9
100
AcDbVertex
100
AcDb2dVertex
 10
347.305029900268
 20
427.2219070039737
 30
0.0
  0
VERTEX
  5
4D8
330
4D2
100
AcDbEntity
  8
0
 62
     7
420
 16777215
370
     9
100
AcDbVertex
100
AcDb2dVertex
 10
347.1245555890182
 20
427.606505759305
 30
0.0
  0
VERTEX
  5
4D9
330
4D2
100
AcDbEntity
  8
0
 62
     7
420
 16777215
370
     9
100
AcDbVertex
100
AcDb2dVertex
 10
347.1245556015092
 20
440.6065057593069
 30
0.0
  0
VERTEX
  5
4DA
330
4D2
100
AcDbEntity
  8
0
 62
     7
420
 16777215
370
     9
100
AcDbVertex
100
AcDb2dVertex
 10
347.2399568466608
 20
440.926031447575
 30
0.0
  0
VERTEX
  5
4DB
330
4D2
100
AcDbEntity
  8
0
 62
     7
420
 16777215
370
     9
100
AcDbVertex
100
AcDb2dVertex
 10
347.6244049536599
 20
441.1065057588203
 30
0.0
  0
VERTEX
  5
4DC
330
4D2
100
AcDbEntity
  8
0
 62
     7
420
 16777215
370
     9
100
AcDbVertex
100
AcDb2dVertex
 10
360.6245556019894
 20
441.1065057463347
 30
0.0
  0
VERTEX
  5
4DD
330
4D2
100
AcDbEntity
  8
0
 62
     7
420
 16777215
370
     9
100
AcDbVertex
100
AcDb2dVertex
 10
360.9440812902576
 20
440.9911045011841
 30
0.0
  0
VERTEX
  5
4DE
330
4D2
100
AcDbEntity
  8
0
 62
     7
420
 16777215
370
     9
100
AcDbVertex
100
AcDb2dVertex
 10
361.1245556015092
 20
440.6065057458545
 30
0.0
  0
VERTEX
  5
4DF
330
4D2
100
AcDbEntity
  8
0
 62
     7
420
 16777215
370
     9
100
AcDbVertex
100
AcDb2dVertex
 10
361.12455558902
 20
427.6065057458527
 30
0.0
  0
SEQEND
  5
4E0
330
4D2
100
AcDbEntity
  8
0
 62
     7
420
 16777215
370
     9
  0
ENDBLK
  5
4D1
330
4CE
100
AcDbEntity
  8
0
100
AcDbBlockEnd
  0
BLOCK
  5
4E3
330
4E1
100
AcDbEntity
  8
0
100
AcDbBlockBegin
  2
block 65
 70
     0
 10
0.0
 20
0.0
 30
0.0
  3
block 65
  1

  0
POLYLINE
  5
4E5
330
4E1
100
AcDbEntity
  8
0
 62
     7
420
 16777215
370
     9
100
AcDb2dPolyline
 66
     1
 10
0.0
 20
0.0
 30
0.0
  0
VERTEX
  5
4E6
330
4E5
100
AcDbEntity
  8
0
 62
     7
420
 16777215
370
     9
100
AcDbVertex
100
AcDb2dVertex
 10
342.0745555890171
 20
427.6065057641554
 30
0.0
  0
VERTEX
  5
4E7
330
4E5
100
AcDbEntity
  8
0
 62
     7
420
 16777215
370
     9
100
AcDbVertex
100
AcDb2dVertex
 10
341.9591543438673
 20
427.2869800758854
 30
0.0
  0
VERTEX
  5
4E8
330
4E5
100
AcDbEntity
  8
0
 62
     7
420
 16777215
370
     9
100
AcDbVertex
100
AcDb2dVertex
 10
341.5745334955063
 20
427.1065057646401
 30
0.0
  0
VERTEX
  5
4E9
330
4E5
100
AcDbEntity
  8
0
 62
     7
420
 16777215
370
     9
100
AcDbVertex
100
AcDb2dVertex
 10
328.5745555885369
 20
427.1065057771257
 30
0.0
  0
VERTEX
  5
4EA
330
4E5
100
AcDbEntity
  8
0
 62
     7
420
 16777215
370
     9
100
AcDbVertex
100
AcDb2dVertex
 10
328.2550299002687
 20
427.2219070222764
 30
0.0
  0
VERTEX
  5
4EB
330
4E5
100
AcDbEntity
  8
0
 62
     7
420
 16777215
370
     9
100
AcDbVertex
100
AcDb2dVertex
 10
328.0745555890171
 20
427.6065057776059
 30
0.0
  0
VERTEX
  5
4EC
330
4E5
100
AcDbEntity
  8
0
 62
     7
420
 16777215
370
     9
100
AcDbVertex
100
AcDb2dVertex
 10
328.0745556015063
 20
440.6065057776023
 30
0.0
  0
VERTEX
  5
4ED
330
4E5
100
AcDbEntity
  8
0
 62
     7
420
 16777215
370
     9
100
AcDbVertex
100
AcDb2dVertex
 10
328.1899568466579
 20
440.926031465875
 30
0.0
  0
VERTEX
  5
4EE
330
4E5
100
AcDbEntity
  8
0
 62
     7
420
 16777215
370
     9
100
AcDbVertex
100
AcDb2dVertex
 10
328.574522064866
 20
441.1065057771257
 30
0.0
  0
VERTEX
  5
4EF
330
4E5
100
AcDbEntity
  8
0
 62
     7
420
 16777215
370
     9
100
AcDbVertex
100
AcDb2dVertex
 10
341.5745556019883
 20
441.1065057646374
 30
0.0
  0
VERTEX
  5
4F0
330
4E5
100
AcDbEntity
  8
0
 62
     7
420
 16777215
370
     9
100
AcDbVertex
100
AcDb2dVertex
 10
341.8940812902565
 20
440.9911045194849
 30
0.0
  0
VERTEX
  5
4F1
330
4E5
100
AcDbEntity
  8
0
 62
     7
420
 16777215
370
     9
100
AcDbVertex
100
AcDb2dVertex
 10
342.0745556015063
 20
440.6065057641554
 30
0.0
  0
VERTEX
  5
4F2
330
4E5
100
AcDbEntity
  8
0
 62
     7
420
 16777215
370
     9
100
AcDbVertex
100
AcDb2dVertex
 10
342.0745555890171
 20
427.6065057641554
 30
0.0
  0
SEQEND
  5
4F3
330
4E5
100
AcDbEntity
  8
0
 62
     7
420
 16777215
370
     9
  0
ENDBLK
  5
4E4
330
4E1
100
AcDbEntity
  8
0
100
AcDbBlockEnd
  0
BLOCK
  5
4F6
330
4F4
100
AcDbEntity
  8
0
100
AcDbBlockBegin
  2
block 66
 70
     0
 10
0.0
 20
0.0
 30
0.0
  3
block 66
  1

  0
POLYLINE
  5
4F8
330
4F4
100
AcDbEntity
  8
0
 62
     7
420
 16777215
370
     9
100
AcDb2dPolyline
 66
     1
 10
0.0
 20
0.0
 30
0.0
  0
VERTEX
  5
4F9
330
4F8
100
AcDbEntity
  8
0
 62
     7
420
 16777215
370
     9
100
AcDbVertex
100
AcDb2dVertex
 10
323.0245555890178
 20
427.606505782459
 30
0.0
  0
VERTEX
  5
4FA
330
4F8
100
AcDbEntity
  8
0
 62
     7
420
 16777215
370
     9
100
AcDbVertex
100
AcDb2dVertex
 10
322.9091543438681
 20
427.2869800941862
 30
0.0
  0
VERTEX
  5
4FB
330
4F8
100
AcDbEntity
  8
0
 62
     7
420
 16777215
370
     9
100
AcDbVertex
100
AcDb2dVertex
 10
322.5244121881333
 20
427.1065057829346
 30
0.0
  0
VERTEX
  5
4FC
330
4F8
100
AcDbEntity
  8
0
 62
     7
420
 16777215
370
     9
100
AcDbVertex
100
AcDb2dVertex
 10
309.5245555885376
 20
427.1065057954283
 30
0.0
  0
VERTEX
  5
4FD
330
4F8
100
AcDbEntity
  8
0
 62
     7
420
 16777215
370
     9
100
AcDbVertex
100
AcDb2dVertex
 10
309.2050299002694
 20
427.2219070405763
 30
0.0
  0
VERTEX
  5
4FE
330
4F8
100
AcDbEntity
  8
0
 62
     7
420
 16777215
370
     9
100
AcDbVertex
100
AcDb2dVertex
 10
309.0245555890197
 20
427.6065057959095
 30
0.0
  0
VERTEX
  5
4FF
330
4F8
100
AcDbEntity
  8
0
 62
     7
420
 16777215
370
     9
100
AcDbVertex
100
AcDb2dVertex
 10
309.024555601507
 20
440.6065057959077
 30
0.0
  0
VERTEX
  5
500
330
4F8
100
AcDbEntity
  8
0
 62
     7
420
 16777215
370
     9
100
AcDbVertex
100
AcDb2dVertex
 10
309.1399568466586
 20
440.9260314841777
 30
0.0
  0
VERTEX
  5
501
330
4F8
100
AcDbEntity
  8
0
 62
     7
420
 16777215
370
     9
100
AcDbVertex
100
AcDb2dVertex
 10
309.5244007574929
 20
441.1065057954283
 30
0.0
  0
VERTEX
  5
502
330
4F8
100
AcDbEntity
  8
0
 62
     7
420
 16777215
370
     9
100
AcDbVertex
100
AcDb2dVertex
 10
322.5245556019891
 20
441.1065057829346
 30
0.0
  0
VERTEX
  5
503
330
4F8
100
AcDbEntity
  8
0
 62
     7
420
 16777215
370
     9
100
AcDbVertex
100
AcDb2dVertex
 10
322.8440812902572
 20
440.9911045377839
 30
0.0
  0
VERTEX
  5
504
330
4F8
100
AcDbEntity
  8
0
 62
     7
420
 16777215
370
     9
100
AcDbVertex
100
AcDb2dVertex
 10
323.024555601507
 20
440.6065057824608
 30
0.0
  0
VERTEX
  5
505
330
4F8
100
AcDbEntity
  8
0
 62
     7
420
 16777215
370
     9
100
AcDbVertex
100
AcDb2dVertex
 10
323.0245555890178
 20
427.606505782459
 30
0.0
  0
SEQEND
  5
506
330
4F8
100
AcDbEntity
  8
0
 62
     7
420
 16777215
370
     9
  0
ENDBLK
  5
4F7
330
4F4
100
AcDbEntity
  8
0
100
AcDbBlockEnd
  0
BLOCK
  5
509
330
507
100
AcDbEntity
  8
0
100
AcDbBlockBegin
  2
block 67
 70
     0
 10
0.0
 20
0.0
 30
0.0
  3
block 67
  1

  0
POLYLINE
  5
50B
330
507
100
AcDbEntity
  8
0
 62
     7
420
 16777215
370
     9
100
AcDb2dPolyline
 66
     1
 10
0.0
 20
0.0
 30
0.0
  0
VERTEX
  5
50C
330
50B
100
AcDbEntity
  8
0
 62
     7
420
 16777215
370
     9
100
AcDbVertex
100
AcDb2dVertex
 10
303.9745555890186
 20
427.6065058007607
 30
0.0
  0
VERTEX
  5
50D
330
50B
100
AcDbEntity
  8
0
 62
     7
420
 16777215
370
     9
100
AcDbVertex
100
AcDb2dVertex
 10
303.859154343867
 20
427.2869801124898
 30
0.0
  0
VERTEX
  5
50E
330
50B
100
AcDbEntity
  8
0
 62
     7
420
 16777215
370
     9
100
AcDbVertex
100
AcDb2dVertex
 10
303.4745292993412
 20
427.1065058012391
 30
0.0
  0
VERTEX
  5
50F
330
50B
100
AcDbEntity
  8
0
 62
     7
420
 16777215
370
     9
100
AcDbVertex
100
AcDb2dVertex
 10
290.4745555885384
 20
427.1065058137292
 30
0.0
  0
VERTEX
  5
510
330
50B
100
AcDbEntity
  8
0
 62
     7
420
 16777215
370
     9
100
AcDbVertex
100
AcDb2dVertex
 10
290.1550299002665
 20
427.2219070588772
 30
0.0
  0
VERTEX
  5
511
330
50B
100
AcDbEntity
  8
0
 62
     7
420
 16777215
370
     9
100
AcDbVertex
100
AcDb2dVertex
 10
289.9745540953518
 20
427.6065058142067
 30
0.0
  0
VERTEX
  5
512
330
50B
100
AcDbEntity
  8
0
 62
     7
420
 16777215
370
     9
100
AcDbVertex
100
AcDb2dVertex
 10
289.9745556015096
 20
440.6065058142085
 30
0.0
  0
VERTEX
  5
513
330
50B
100
AcDbEntity
  8
0
 62
     7
420
 16777215
370
     9
100
AcDbVertex
100
AcDb2dVertex
 10
290.0899568466575
 20
440.9260315024785
 30
0.0
  0
VERTEX
  5
514
330
50B
100
AcDbEntity
  8
0
 62
     7
420
 16777215
370
     9
100
AcDbVertex
100
AcDb2dVertex
 10
290.474517868699
 20
441.1065058137301
 30
0.0
  0
VERTEX
  5
515
330
50B
100
AcDbEntity
  8
0
 62
     7
420
 16777215
370
     9
100
AcDbVertex
100
AcDb2dVertex
 10
303.4745556019898
 20
441.1065058012391
 30
0.0
  0
VERTEX
  5
516
330
50B
100
AcDbEntity
  8
0
 62
     7
420
 16777215
370
     9
100
AcDbVertex
100
AcDb2dVertex
 10
303.794081290258
 20
440.9911045560875
 30
0.0
  0
VERTEX
  5
517
330
50B
100
AcDbEntity
  8
0
 62
     7
420
 16777215
370
     9
100
AcDbVertex
100
AcDb2dVertex
 10
303.9745556015096
 20
440.606505800758
 30
0.0
  0
VERTEX
  5
518
330
50B
100
AcDbEntity
  8
0
 62
     7
420
 16777215
370
     9
100
AcDbVertex
100
AcDb2dVertex
 10
303.9745555890186
 20
427.6065058007607
 30
0.0
  0
SEQEND
  5
519
330
50B
100
AcDbEntity
  8
0
 62
     7
420
 16777215
370
     9
  0
ENDBLK
  5
50A
330
507
100
AcDbEntity
  8
0
100
AcDbBlockEnd
  0
BLOCK
  5
51C
330
51A
100
AcDbEntity
  8
0
100
AcDbBlockBegin
  2
block 68
 70
     0
 10
0.0
 20
0.0
 30
0.0
  3
block 68
  1

  0
POLYLINE
  5
51E
330
51A
100
AcDbEntity
  8
0
 62
     7
420
 16777215
370
     9
100
AcDb2dPolyline
 66
     1
 10
0.0
 20
0.0
 30
0.0
  0
VERTEX
  5
51F
330
51E
100
AcDbEntity
  8
0
 62
     7
420
 16777215
370
     9
100
AcDbVertex
100
AcDb2dVertex
 10
284.9245555890193
 20
427.6065058190588
 30
0.0
  0
VERTEX
  5
520
330
51E
100
AcDbEntity
  8
0
 62
     7
420
 16777215
370
     9
100
AcDbVertex
100
AcDb2dVertex
 10
284.8091543438677
 20
427.2869801307861
 30
0.0
  0
VERTEX
  5
521
330
51E
100
AcDbEntity
  8
0
 62
     7
420
 16777215
370
     9
100
AcDbVertex
100
AcDb2dVertex
 10
284.4244079919681
 20
427.1065058195418
 30
0.0
  0
VERTEX
  5
522
330
51E
100
AcDbEntity
  8
0
 62
     7
420
 16777215
370
     9
100
AcDbVertex
100
AcDb2dVertex
 10
271.4245555885391
 20
427.1065058320291
 30
0.0
  0
VERTEX
  5
523
330
51E
100
AcDbEntity
  8
0
 62
     7
420
 16777215
370
     9
100
AcDbVertex
100
AcDb2dVertex
 10
271.1050299002673
 20
427.2219070771789
 30
0.0
  0
VERTEX
  5
524
330
51E
100
AcDbEntity
  8
0
 62
     7
420
 16777215
370
     9
100
AcDbVertex
100
AcDb2dVertex
 10
270.9245555890193
 20
427.6065058325094
 30
0.0
  0
VERTEX
  5
525
330
51E
100
AcDbEntity
  8
0
 62
     7
420
 16777215
370
     9
100
AcDbVertex
100
AcDb2dVertex
 10
270.9245556015085
 20
440.6065058325112
 30
0.0
  0
VERTEX
  5
526
330
51E
100
AcDbEntity
  8
0
 62
     7
420
 16777215
370
     9
100
AcDbVertex
100
AcDb2dVertex
 10
271.0399568466582
 20
440.9260315207821
 30
0.0
  0
VERTEX
  5
527
330
51E
100
AcDbEntity
  8
0
 62
     7
420
 16777215
370
     9
100
AcDbVertex
100
AcDb2dVertex
 10
271.4243965613259
 20
441.1065058320346
 30
0.0
  0
VERTEX
  5
528
330
51E
100
AcDbEntity
  8
0
 62
     7
420
 16777215
370
     9
100
AcDbVertex
100
AcDb2dVertex
 10
284.4245556019887
 20
441.1065058195418
 30
0.0
  0
VERTEX
  5
529
330
51E
100
AcDbEntity
  8
0
 62
     7
420
 16777215
370
     9
100
AcDbVertex
100
AcDb2dVertex
 10
284.7440812902569
 20
440.9911045743902
 30
0.0
  0
VERTEX
  5
52A
330
51E
100
AcDbEntity
  8
0
 62
     7
420
 16777215
370
     9
100
AcDbVertex
100
AcDb2dVertex
 10
284.9245556015085
 20
440.6065058190607
 30
0.0
  0
VERTEX
  5
52B
330
51E
100
AcDbEntity
  8
0
 62
     7
420
 16777215
370
     9
100
AcDbVertex
100
AcDb2dVertex
 10
284.9245555890193
 20
427.6065058190588
 30
0.0
  0
SEQEND
  5
52C
330
51E
100
AcDbEntity
  8
0
 62
     7
420
 16777215
370
     9
  0
ENDBLK
  5
51D
330
51A
100
AcDbEntity
  8
0
100
AcDbBlockEnd
  0
BLOCK
  5
52F
330
52D
100
AcDbEntity
  8
0
100
AcDbBlockBegin
  2
block 69
 70
     0
 10
0.0
 20
0.0
 30
0.0
  3
block 69
  1

  0
POLYLINE
  5
531
330
52D
100
AcDbEntity
  8
0
 62
     7
420
 16777215
370
     9
100
AcDb2dPolyline
 66
     1
 10
0.0
 20
0.0
 30
0.0
  0
VERTEX
  5
532
330
531
100
AcDbEntity
  8
0
 62
     7
420
 16777215
370
     9
100
AcDbVertex
100
AcDb2dVertex
 10
265.87455558902
 20
427.6065058373624
 30
0.0
  0
VERTEX
  5
533
330
531
100
AcDbEntity
  8
0
 62
     7
420
 16777215
370
     9
100
AcDbVertex
100
AcDb2dVertex
 10
265.7591543438684
 20
427.2869801490915
 30
0.0
  0
VERTEX
  5
534
330
531
100
AcDbEntity
  8
0
 62
     7
420
 16777215
370
     9
100
AcDbVertex
100
AcDb2dVertex
 10
265.3745251031742
 20
427.1065058378445
 30
0.0
  0
VERTEX
  5
535
330
531
100
AcDbEntity
  8
0
 62
     7
420
 16777215
370
     9
100
AcDbVertex
100
AcDb2dVertex
 10
252.3745555885398
 20
427.1065058503318
 30
0.0
  0
VERTEX
  5
536
330
531
100
AcDbEntity
  8
0
 62
     7
420
 16777215
370
     9
100
AcDbVertex
100
AcDb2dVertex
 10
252.055029900268
 20
427.2219070954834
 30
0.0
  0
VERTEX
  5
537
330
531
100
AcDbEntity
  8
0
 62
     7
420
 16777215
370
     9
100
AcDbVertex
100
AcDb2dVertex
 10
251.8745498991848
 20
427.6065058508148
 30
0.0
  0
VERTEX
  5
538
330
531
100
AcDbEntity
  8
0
 62
     7
420
 16777215
370
     9
100
AcDbVertex
100
AcDb2dVertex
 10
251.8745556015074
 20
440.6065058508148
 30
0.0
  0
VERTEX
  5
539
330
531
100
AcDbEntity
  8
0
 62
     7
420
 16777215
370
     9
100
AcDbVertex
100
AcDb2dVertex
 10
251.989956846659
 20
440.9260315390793
 30
0.0
  0
VERTEX
  5
53A
330
531
100
AcDbEntity
  8
0
 62
     7
420
 16777215
370
     9
100
AcDbVertex
100
AcDb2dVertex
 10
252.374513672532
 20
441.10650585033
 30
0.0
  0
VERTEX
  5
53B
330
531
100
AcDbEntity
  8
0
 62
     7
420
 16777215
370
     9
100
AcDbVertex
100
AcDb2dVertex
 10
265.3745556019894
 20
441.1065058378445
 30
0.0
  0
VERTEX
  5
53C
330
531
100
AcDbEntity
  8
0
 62
     7
420
 16777215
370
     9
100
AcDbVertex
100
AcDb2dVertex
 10
265.6940812902576
 20
440.9911045926938
 30
0.0
  0
VERTEX
  5
53D
330
531
100
AcDbEntity
  8
0
 62
     7
420
 16777215
370
     9
100
AcDbVertex
100
AcDb2dVertex
 10
265.8745556015092
 20
440.6065058373642
 30
0.0
  0
VERTEX
  5
53E
330
531
100
AcDbEntity
  8
0
 62
     7
420
 16777215
370
     9
100
AcDbVertex
100
AcDb2dVertex
 10
265.87455558902
 20
427.6065058373624
 30
0.0
  0
SEQEND
  5
53F
330
531
100
AcDbEntity
  8
0
 62
     7
420
 16777215
370
     9
  0
ENDBLK
  5
530
330
52D
100
AcDbEntity
  8
0
100
AcDbBlockEnd
  0
BLOCK
  5
542
330
540
100
AcDbEntity
  8
0
100
AcDbBlockBegin
  2
block 70
 70
     0
 10
0.0
 20
0.0
 30
0.0
  3
block 70
  1

  0
POLYLINE
  5
544
330
540
100
AcDbEntity
  8
0
 62
     7
420
 16777215
370
     9
100
AcDb2dPolyline
 66
     1
 10
0.0
 20
0.0
 30
0.0
  0
VERTEX
  5
545
330
544
100
AcDbEntity
  8
0
 62
     7
420
 16777215
370
     9
100
AcDbVertex
100
AcDb2dVertex
 10
246.8245555890189
 20
427.6065058556633
 30
0.0
  0
VERTEX
  5
546
330
544
100
AcDbEntity
  8
0
 62
     7
420
 16777215
370
     9
100
AcDbVertex
100
AcDb2dVertex
 10
246.7091543438692
 20
427.2869801673951
 30
0.0
  0
VERTEX
  5
547
330
544
100
AcDbEntity
  8
0
 62
     7
420
 16777215
370
     9
100
AcDbVertex
100
AcDb2dVertex
 10
246.3245230050907
 20
427.1065058561444
 30
0.0
  0
VERTEX
  5
548
330
544
100
AcDbEntity
  8
0
 62
     7
420
 16777215
370
     9
100
AcDbVertex
100
AcDb2dVertex
 10
233.3245555885405
 20
427.1065058686345
 30
0.0
  0
VERTEX
  5
549
330
544
100
AcDbEntity
  8
0
 62
     7
420
 16777215
370
     9
100
AcDbVertex
100
AcDb2dVertex
 10
233.0050299002687
 20
427.2219071137843
 30
0.0
  0
VERTEX
  5
54A
330
544
100
AcDbEntity
  8
0
 62
     7
420
 16777215
370
     9
100
AcDbVertex
100
AcDb2dVertex
 10
232.8245478011013
 20
427.6065058691156
 30
0.0
  0
VERTEX
  5
54B
330
544
100
AcDbEntity
  8
0
 62
     7
420
 16777215
370
     9
100
AcDbVertex
100
AcDb2dVertex
 10
232.8245556015081
 20
440.606505869112
 30
0.0
  0
VERTEX
  5
54C
330
544
100
AcDbEntity
  8
0
 62
     7
420
 16777215
370
     9
100
AcDbVertex
100
AcDb2dVertex
 10
232.9399568466597
 20
440.9260315573874
 30
0.0
  0
VERTEX
  5
54D
330
544
100
AcDbEntity
  8
0
 62
     7
420
 16777215
370
     9
100
AcDbVertex
100
AcDb2dVertex
 10
233.3245115744485
 20
441.1065058686345
 30
0.0
  0
VERTEX
  5
54E
330
544
100
AcDbEntity
  8
0
 62
     7
420
 16777215
370
     9
100
AcDbVertex
100
AcDb2dVertex
 10
246.3245556019883
 20
441.1065058561426
 30
0.0
  0
VERTEX
  5
54F
330
544
100
AcDbEntity
  8
0
 62
     7
420
 16777215
370
     9
100
AcDbVertex
100
AcDb2dVertex
 10
246.6440812902583
 20
440.9911046109937
 30
0.0
  0
VERTEX
  5
550
330
544
100
AcDbEntity
  8
0
 62
     7
420
 16777215
370
     9
100
AcDbVertex
100
AcDb2dVertex
 10
246.8245556015081
 20
440.6065058556651
 30
0.0
  0
VERTEX
  5
551
330
544
100
AcDbEntity
  8
0
 62
     7
420
 16777215
370
     9
100
AcDbVertex
100
AcDb2dVertex
 10
246.8245555890189
 20
427.6065058556633
 30
0.0
  0
SEQEND
  5
552
330
544
100
AcDbEntity
  8
0
 62
     7
420
 16777215
370
     9
  0
ENDBLK
  5
543
330
540
100
AcDbEntity
  8
0
100
AcDbBlockEnd
  0
BLOCK
  5
555
330
553
100
AcDbEntity
  8
0
100
AcDbBlockBegin
  2
block 71
 70
     0
 10
0.0
 20
0.0
 30
0.0
  3
block 71
  1

  0
POLYLINE
  5
557
330
553
100
AcDbEntity
  8
0
 62
     7
420
 16777215
370
     9
100
AcDb2dPolyline
 66
     1
 10
0.0
 20
0.0
 30
0.0
  0
VERTEX
  5
558
330
557
100
AcDbEntity
  8
0
 62
     7
420
 16777215
370
     9
100
AcDbVertex
100
AcDb2dVertex
 10
227.7745555890178
 20
427.6065058739678
 30
0.0
  0
VERTEX
  5
559
330
557
100
AcDbEntity
  8
0
 62
     7
420
 16777215
370
     9
100
AcDbVertex
100
AcDb2dVertex
 10
227.6591543438681
 20
427.2869801856959
 30
0.0
  0
VERTEX
  5
55A
330
557
100
AcDbEntity
  8
0
 62
     7
420
 16777215
370
     9
100
AcDbVertex
100
AcDb2dVertex
 10
227.2745209070072
 20
427.1065058744452
 30
0.0
  0
VERTEX
  5
55B
330
557
100
AcDbEntity
  8
0
 62
     7
420
 16777215
370
     9
100
AcDbVertex
100
AcDb2dVertex
 10
214.2745555885394
 20
427.1065058869381
 30
0.0
  0
VERTEX
  5
55C
330
557
100
AcDbEntity
  8
0
 62
     7
420
 16777215
370
     9
100
AcDbVertex
100
AcDb2dVertex
 10
213.9550299002676
 20
427.2219071320842
 30
0.0
  0
VERTEX
  5
55D
330
557
100
AcDbEntity
  8
0
 62
     7
420
 16777215
370
     9
100
AcDbVertex
100
AcDb2dVertex
 10
213.7745457030178
 20
427.6065058874192
 30
0.0
  0
VERTEX
  5
55E
330
557
100
AcDbEntity
  8
0
 62
     7
420
 16777215
370
     9
100
AcDbVertex
100
AcDb2dVertex
 10
213.7745556015088
 20
440.6065058874156
 30
0.0
  0
VERTEX
  5
55F
330
557
100
AcDbEntity
  8
0
 62
     7
420
 16777215
370
     9
100
AcDbVertex
100
AcDb2dVertex
 10
213.8899568466604
 20
440.9260315756856
 30
0.0
  0
VERTEX
  5
560
330
557
100
AcDbEntity
  8
0
 62
     7
420
 16777215
370
     9
100
AcDbVertex
100
AcDb2dVertex
 10
214.274509476365
 20
441.1065058869381
 30
0.0
  0
VERTEX
  5
561
330
557
100
AcDbEntity
  8
0
 62
     7
420
 16777215
370
     9
100
AcDbVertex
100
AcDb2dVertex
 10
227.2745556019891
 20
441.1065058744425
 30
0.0
  0
VERTEX
  5
562
330
557
100
AcDbEntity
  8
0
 62
     7
420
 16777215
370
     9
100
AcDbVertex
100
AcDb2dVertex
 10
227.5940812902591
 20
440.9911046292982
 30
0.0
  0
VERTEX
  5
563
330
557
100
AcDbEntity
  8
0
 62
     7
420
 16777215
370
     9
100
AcDbVertex
100
AcDb2dVertex
 10
227.7745556015088
 20
440.6065058739641
 30
0.0
  0
VERTEX
  5
564
330
557
100
AcDbEntity
  8
0
 62
     7
420
 16777215
370
     9
100
AcDbVertex
100
AcDb2dVertex
 10
227.7745555890178
 20
427.6065058739678
 30
0.0
  0
SEQEND
  5
565
330
557
100
AcDbEntity
  8
0
 62
     7
420
 16777215
370
     9
  0
ENDBLK
  5
556
330
553
100
AcDbEntity
  8
0
100
AcDbBlockEnd
  0
BLOCK
  5
568
330
566
100
AcDbEntity
  8
0
100
AcDbBlockBegin
  2
block 72
 70
     0
 10
0.0
 20
0.0
 30
0.0
  3
block 72
  1

  0
POLYLINE
  5
56A
330
566
100
AcDbEntity
  8
0
 62
     7
420
 16777215
370
     9
100
AcDb2dPolyline
 66
     1
 10
0.0
 20
0.0
 30
0.0
  0
VERTEX
  5
56B
330
56A
100
AcDbEntity
  8
0
 62
     7
420
 16777215
370
     9
100
AcDbVertex
100
AcDb2dVertex
 10
208.7245555890186
 20
427.6065058922713
 30
0.0
  0
VERTEX
  5
56C
330
56A
100
AcDbEntity
  8
0
 62
     7
420
 16777215
370
     9
100
AcDbVertex
100
AcDb2dVertex
 10
208.609154343867
 20
427.2869802039986
 30
0.0
  0
VERTEX
  5
56D
330
56A
100
AcDbEntity
  8
0
 62
     7
420
 16777215
370
     9
100
AcDbVertex
100
AcDb2dVertex
 10
208.2245188089237
 20
427.1065058927488
 30
0.0
  0
VERTEX
  5
56E
330
56A
100
AcDbEntity
  8
0
 62
     7
420
 16777215
370
     9
100
AcDbVertex
100
AcDb2dVertex
 10
195.2245555885384
 20
427.1065059052407
 30
0.0
  0
VERTEX
  5
56F
330
56A
100
AcDbEntity
  8
0
 62
     7
420
 16777215
370
     9
100
AcDbVertex
100
AcDb2dVertex
 10
194.9050299002665
 20
427.2219071503851
 30
0.0
  0
VERTEX
  5
570
330
56A
100
AcDbEntity
  8
0
 62
     7
420
 16777215
370
     9
100
AcDbVertex
100
AcDb2dVertex
 10
194.7245555890186
 20
427.6065059057182
 30
0.0
  0
VERTEX
  5
571
330
56A
100
AcDbEntity
  8
0
 62
     7
420
 16777215
370
     9
100
AcDbVertex
100
AcDb2dVertex
 10
194.7245556015096
 20
440.60650590572
 30
0.0
  0
VERTEX
  5
572
330
56A
100
AcDbEntity
  8
0
 62
     7
420
 16777215
370
     9
100
AcDbVertex
100
AcDb2dVertex
 10
194.8399568466575
 20
440.9260315939882
 30
0.0
  0
VERTEX
  5
573
330
56A
100
AcDbEntity
  8
0
 62
     7
420
 16777215
370
     9
100
AcDbVertex
100
AcDb2dVertex
 10
195.2245073782815
 20
441.106505905238
 30
0.0
  0
VERTEX
  5
574
330
56A
100
AcDbEntity
  8
0
 62
     7
420
 16777215
370
     9
100
AcDbVertex
100
AcDb2dVertex
 10
208.2245556019898
 20
441.1065058927488
 30
0.0
  0
VERTEX
  5
575
330
56A
100
AcDbEntity
  8
0
 62
     7
420
 16777215
370
     9
100
AcDbVertex
100
AcDb2dVertex
 10
208.544081290258
 20
440.9911046475972
 30
0.0
  0
VERTEX
  5
576
330
56A
100
AcDbEntity
  8
0
 62
     7
420
 16777215
370
     9
100
AcDbVertex
100
AcDb2dVertex
 10
208.7245556015096
 20
440.6065058922677
 30
0.0
  0
VERTEX
  5
577
330
56A
100
AcDbEntity
  8
0
 62
     7
420
 16777215
370
     9
100
AcDbVertex
100
AcDb2dVertex
 10
208.7245555890186
 20
427.6065058922713
 30
0.0
  0
SEQEND
  5
578
330
56A
100
AcDbEntity
  8
0
 62
     7
420
 16777215
370
     9
  0
ENDBLK
  5
569
330
566
100
AcDbEntity
  8
0
100
AcDbBlockEnd
  0
BLOCK
  5
57B
330
579
100
AcDbEntity
  8
0
100
AcDbBlockBegin
  2
block 73
 70
     0
 10
0.0
 20
0.0
 30
0.0
  3
block 73
  1

  0
POLYLINE
  5
57D
330
579
100
AcDbEntity
  8
0
 62
     7
420
 16777215
370
     9
100
AcDb2dPolyline
 66
     1
 10
0.0
 20
0.0
 30
0.0
  0
VERTEX
  5
57E
330
57D
100
AcDbEntity
  8
0
 62
     7
420
 16777215
370
     9
100
AcDbVertex
100
AcDb2dVertex
 10
189.6745555890193
 20
427.6065059105686
 30
0.0
  0
VERTEX
  5
57F
330
57D
100
AcDbEntity
  8
0
 62
     7
420
 16777215
370
     9
100
AcDbVertex
100
AcDb2dVertex
 10
189.5591543438677
 20
427.2869802222986
 30
0.0
  0
VERTEX
  5
580
330
57D
100
AcDbEntity
  8
0
 62
     7
420
 16777215
370
     9
100
AcDbVertex
100
AcDb2dVertex
 10
189.1745167108402
 20
427.1065059110533
 30
0.0
  0
VERTEX
  5
581
330
57D
100
AcDbEntity
  8
0
 62
     7
420
 16777215
370
     9
100
AcDbVertex
100
AcDb2dVertex
 10
176.1745555885391
 20
427.1065059235389
 30
0.0
  0
VERTEX
  5
582
330
57D
100
AcDbEntity
  8
0
 62
     7
420
 16777215
370
     9
100
AcDbVertex
100
AcDb2dVertex
 10
175.8550299002673
 20
427.2219071686895
 30
0.0
  0
VERTEX
  5
583
330
57D
100
AcDbEntity
  8
0
 62
     7
420
 16777215
370
     9
100
AcDbVertex
100
AcDb2dVertex
 10
175.6745555890175
 20
427.6065059240191
 30
0.0
  0
VERTEX
  5
584
330
57D
100
AcDbEntity
  8
0
 62
     7
420
 16777215
370
     9
100
AcDbVertex
100
AcDb2dVertex
 10
175.6745556015067
 20
440.6065059240209
 30
0.0
  0
VERTEX
  5
585
330
57D
100
AcDbEntity
  8
0
 62
     7
420
 16777215
370
     9
100
AcDbVertex
100
AcDb2dVertex
 10
175.7899568466582
 20
440.9260316122918
 30
0.0
  0
VERTEX
  5
586
330
57D
100
AcDbEntity
  8
0
 62
     7
420
 16777215
370
     9
100
AcDbVertex
100
AcDb2dVertex
 10
176.174505280198
 20
441.1065059235389
 30
0.0
  0
VERTEX
  5
587
330
57D
100
AcDbEntity
  8
0
 62
     7
420
 16777215
370
     9
100
AcDbVertex
100
AcDb2dVertex
 10
189.1745556019887
 20
441.1065059110533
 30
0.0
  0
VERTEX
  5
588
330
57D
100
AcDbEntity
  8
0
 62
     7
420
 16777215
370
     9
100
AcDbVertex
100
AcDb2dVertex
 10
189.4940812902569
 20
440.9911046658999
 30
0.0
  0
VERTEX
  5
589
330
57D
100
AcDbEntity
  8
0
 62
     7
420
 16777215
370
     9
100
AcDbVertex
100
AcDb2dVertex
 10
189.6745556015085
 20
440.6065059105686
 30
0.0
  0
VERTEX
  5
58A
330
57D
100
AcDbEntity
  8
0
 62
     7
420
 16777215
370
     9
100
AcDbVertex
100
AcDb2dVertex
 10
189.6745555890193
 20
427.6065059105686
 30
0.0
  0
SEQEND
  5
58B
330
57D
100
AcDbEntity
  8
0
 62
     7
420
 16777215
370
     9
  0
ENDBLK
  5
57C
330
579
100
AcDbEntity
  8
0
100
AcDbBlockEnd
  0
BLOCK
  5
58E
330
58C
100
AcDbEntity
  8
0
100
AcDbBlockBegin
  2
block 74
 70
     0
 10
0.0
 20
0.0
 30
0.0
  3
block 74
  1

  0
POLYLINE
  5
590
330
58C
100
AcDbEntity
  8
0
 62
     7
420
 16777215
370
     9
100
AcDb2dPolyline
 66
     1
 10
0.0
 20
0.0
 30
0.0
  0
VERTEX
  5
591
330
590
100
AcDbEntity
  8
0
 62
     7
420
 16777215
370
     9
100
AcDbVertex
100
AcDb2dVertex
 10
170.62455558902
 20
427.6065059288721
 30
0.0
  0
VERTEX
  5
592
330
590
100
AcDbEntity
  8
0
 62
     7
420
 16777215
370
     9
100
AcDbVertex
100
AcDb2dVertex
 10
170.5091543438684
 20
427.2869802406003
 30
0.0
  0
VERTEX
  5
593
330
590
100
AcDbEntity
  8
0
 62
     7
420
 16777215
370
     9
100
AcDbVertex
100
AcDb2dVertex
 10
170.1245146127567
 20
427.1065059293542
 30
0.0
  0
VERTEX
  5
594
330
590
100
AcDbEntity
  8
0
 62
     7
420
 16777215
370
     9
100
AcDbVertex
100
AcDb2dVertex
 10
157.1245555885398
 20
427.1065059418397
 30
0.0
  0
VERTEX
  5
595
330
590
100
AcDbEntity
  8
0
 62
     7
420
 16777215
370
     9
100
AcDbVertex
100
AcDb2dVertex
 10
156.805029900268
 20
427.2219071869931
 30
0.0
  0
VERTEX
  5
596
330
590
100
AcDbEntity
  8
0
 62
     7
420
 16777215
370
     9
100
AcDbVertex
100
AcDb2dVertex
 10
156.6245555890182
 20
427.6065059423227
 30
0.0
  0
VERTEX
  5
597
330
590
100
AcDbEntity
  8
0
 62
     7
420
 16777215
370
     9
100
AcDbVertex
100
AcDb2dVertex
 10
156.6245556015074
 20
440.6065059423245
 30
0.0
  0
VERTEX
  5
598
330
590
100
AcDbEntity
  8
0
 62
     7
420
 16777215
370
     9
100
AcDbVertex
100
AcDb2dVertex
 10
156.739956846659
 20
440.9260316305945
 30
0.0
  0
VERTEX
  5
599
330
590
100
AcDbEntity
  8
0
 62
     7
420
 16777215
370
     9
100
AcDbVertex
100
AcDb2dVertex
 10
157.1245031821145
 20
441.1065059418397
 30
0.0
  0
VERTEX
  5
59A
330
590
100
AcDbEntity
  8
0
 62
     7
420
 16777215
370
     9
100
AcDbVertex
100
AcDb2dVertex
 10
170.1245556019894
 20
441.1065059293542
 30
0.0
  0
VERTEX
  5
59B
330
590
100
AcDbEntity
  8
0
 62
     7
420
 16777215
370
     9
100
AcDbVertex
100
AcDb2dVertex
 10
170.4440812902576
 20
440.9911046842035
 30
0.0
  0
VERTEX
  5
59C
330
590
100
AcDbEntity
  8
0
 62
     7
420
 16777215
370
     9
100
AcDbVertex
100
AcDb2dVertex
 10
170.6245556015092
 20
440.606505928874
 30
0.0
  0
VERTEX
  5
59D
330
590
100
AcDbEntity
  8
0
 62
     7
420
 16777215
370
     9
100
AcDbVertex
100
AcDb2dVertex
 10
170.62455558902
 20
427.6065059288721
 30
0.0
  0
SEQEND
  5
59E
330
590
100
AcDbEntity
  8
0
 62
     7
420
 16777215
370
     9
  0
ENDBLK
  5
58F
330
58C
100
AcDbEntity
  8
0
100
AcDbBlockEnd
  0
BLOCK
  5
5A1
330
59F
100
AcDbEntity
  8
0
100
AcDbBlockBegin
  2
block 75
 70
     0
 10
0.0
 20
0.0
 30
0.0
  3
block 75
  1

  0
POLYLINE
  5
5A3
330
59F
100
AcDbEntity
  8
0
 62
     7
420
 16777215
370
     9
100
AcDb2dPolyline
 66
     1
 10
0.0
 20
0.0
 30
0.0
  0
VERTEX
  5
5A4
330
5A3
100
AcDbEntity
  8
0
 62
     7
420
 16777215
370
     9
100
AcDbVertex
100
AcDb2dVertex
 10
274.0260200126522
 20
353.8516629974165
 30
0.0
  0
VERTEX
  5
5A5
330
5A3
100
AcDbEntity
  8
0
 62
     7
420
 16777215
370
     9
100
AcDbVertex
100
AcDb2dVertex
 10
270.7224774879596
 20
352.928844689055
 30
0.0
  0
VERTEX
  5
5A6
330
5A3
100
AcDbEntity
  8
0
 62
     7
420
 16777215
370
     9
100
AcDbVertex
100
AcDb2dVertex
 10
268.1948225784945
 20
353.851664070984
 30
0.0
  0
VERTEX
  5
5A7
330
5A3
100
AcDbEntity
  8
0
 62
     7
420
 16777215
370
     9
100
AcDbVertex
100
AcDb2dVertex
 10
271.110507934407
 20
356.7673300865335
 30
0.0
  0
VERTEX
  5
5A8
330
5A3
100
AcDbEntity
  8
0
 62
     7
420
 16777215
370
     9
100
AcDbVertex
100
AcDb2dVertex
 10
274.0260200126522
 20
353.8516629974165
 30
0.0
  0
SEQEND
  5
5A9
330
5A3
100
AcDbEntity
  8
0
 62
     7
420
 16777215
370
     9
  0
ENDBLK
  5
5A2
330
59F
100
AcDbEntity
  8
0
100
AcDbBlockEnd
  0
BLOCK
  5
5AC
330
5AA
100
AcDbEntity
  8
0
100
AcDbBlockBegin
  2
block 76
 70
     0
 10
0.0
 20
0.0
 30
0.0
  3
block 76
  1

  0
POLYLINE
  5
5AE
330
5AA
100
AcDbEntity
  8
0
 62
     7
420
 16777215
370
     9
100
AcDb2dPolyline
 66
     1
 10
0.0
 20
0.0
 30
0.0
  0
VERTEX
  5
5AF
330
5AE
100
AcDbEntity
  8
0
 62
     7
420
 16777215
370
     9
100
AcDbVertex
100
AcDb2dVertex
 10
275.1728133848374
 20
360.8296960434291
 30
0.0
  0
VERTEX
  5
5B0
330
5AE
100
AcDbEntity
  8
0
 62
     7
420
 16777215
370
     9
100
AcDbVertex
100
AcDb2dVertex
 10
276.0956529321084
 20
357.5260048206783
 30
0.0
  0
VERTEX
  5
5B1
330
5AE
100
AcDbEntity
  8
0
 62
     7
420
 16777215
370
     9
100
AcDbVertex
100
AcDb2dVertex
 10
275.1728361731202
 20
354.9983211319795
 30
0.0
  0
VERTEX
  5
5B2
330
5AE
100
AcDbEntity
  8
0
 62
     7
420
 16777215
370
     9
100
AcDbVertex
100
AcDb2dVertex
 10
272.2571506721433
 20
357.9140066385607
 30
0.0
  0
VERTEX
  5
5B3
330
5AE
100
AcDbEntity
  8
0
 62
     7
420
 16777215
370
     9
100
AcDbVertex
100
AcDb2dVertex
 10
275.1728133848374
 20
360.8296960434291
 30
0.0
  0
SEQEND
  5
5B4
330
5AE
100
AcDbEntity
  8
0
 62
     7
420
 16777215
370
     9
  0
ENDBLK
  5
5AD
330
5AA
100
AcDbEntity
  8
0
100
AcDbBlockEnd
  0
BLOCK
  5
5B7
330
5B5
100
AcDbEntity
  8
0
100
AcDbBlockBegin
  2
block 77
 70
     0
 10
0.0
 20
0.0
 30
0.0
  3
block 77
  1

  0
POLYLINE
  5
5B9
330
5B5
100
AcDbEntity
  8
0
 62
     7
420
 16777215
370
     9
100
AcDb2dPolyline
 66
     1
 10
0.0
 20
0.0
 30
0.0
  0
VERTEX
  5
5BA
330
5B9
100
AcDbEntity
  8
0
 62
     7
420
 16777215
370
     9
100
AcDbVertex
100
AcDb2dVertex
 10
268.1947784127933
 20
361.976363415708
 30
0.0
  0
VERTEX
  5
5BB
330
5B9
100
AcDbEntity
  8
0
 62
     7
420
 16777215
370
     9
100
AcDbVertex
100
AcDb2dVertex
 10
271.4984932356547
 20
362.8991804344387
 30
0.0
  0
VERTEX
  5
5BC
330
5B9
100
AcDbEntity
  8
0
 62
     7
420
 16777215
370
     9
100
AcDbVertex
100
AcDb2dVertex
 10
274.0261743333103
 20
361.9763614346175
 30
0.0
  0
VERTEX
  5
5BD
330
5B9
100
AcDbEntity
  8
0
 62
     7
420
 16777215
370
     9
100
AcDbVertex
100
AcDb2dVertex
 10
271.110493874221
 20
359.0606634386877
 30
0.0
  0
VERTEX
  5
5BE
330
5B9
100
AcDbEntity
  8
0
 62
     7
420
 16777215
370
     9
100
AcDbVertex
100
AcDb2dVertex
 10
268.1947784127933
 20
361.976363415708
 30
0.0
  0
SEQEND
  5
5BF
330
5B9
100
AcDbEntity
  8
0
 62
     7
420
 16777215
370
     9
  0
ENDBLK
  5
5B8
330
5B5
100
AcDbEntity
  8
0
100
AcDbBlockEnd
  0
BLOCK
  5
5C2
330
5C0
100
AcDbEntity
  8
0
100
AcDbBlockBegin
  2
block 78
 70
     0
 10
0.0
 20
0.0
 30
0.0
  3
block 78
  1

  0
POLYLINE
  5
5C4
330
5C0
100
AcDbEntity
  8
0
 62
     7
420
 16777215
370
     9
100
AcDb2dPolyline
 66
     1
 10
0.0
 20
0.0
 30
0.0
  0
VERTEX
  5
5C5
330
5C4
100
AcDbEntity
  8
0
 62
     7
420
 16777215
370
     9
100
AcDbVertex
100
AcDb2dVertex
 10
266.1758498818381
 20
358.7248565306818
 30
0.0
  0
VERTEX
  5
5C6
330
5C4
100
AcDbEntity
  8
0
 62
     7
420
 16777215
370
     9
100
AcDbVertex
100
AcDb2dVertex
 10
266.549013260872
 20
359.9647085123015
 30
0.0
  0
VERTEX
  5
5C7
330
5C4
100
AcDbEntity
  8
0
 62
     7
420
 16777215
370
     9
100
AcDbVertex
100
AcDb2dVertex
 10
267.0481340306706
 20
360.8297039980771
 30
0.0
  0
VERTEX
  5
5C8
330
5C4
100
AcDbEntity
  8
0
 62
     7
420
 16777215
370
     9
100
AcDbVertex
100
AcDb2dVertex
 10
269.9638427285827
 20
357.9139952945607
 30
0.0
  0
VERTEX
  5
5C9
330
5C4
100
AcDbEntity
  8
0
 62
     7
420
 16777215
370
     9
100
AcDbVertex
100
AcDb2dVertex
 10
267.0479850406118
 20
354.9983396824446
 30
0.0
  0
VERTEX
  5
5CA
330
5C4
100
AcDbEntity
  8
0
 62
     7
420
 16777215
370
     9
100
AcDbVertex
100
AcDb2dVertex
 10
266.4430562893722
 20
356.1171894581366
 30
0.0
  0
VERTEX
  5
5CB
330
5C4
100
AcDbEntity
  8
0
 62
     7
420
 16777215
370
     9
100
AcDbVertex
100
AcDb2dVertex
 10
266.1758969771436
 20
357.1031686088591
 30
0.0
  0
VERTEX
  5
5CC
330
5C4
100
AcDbEntity
  8
0
 62
     7
420
 16777215
370
     9
100
AcDbVertex
100
AcDb2dVertex
 10
256.9240933562833
 20
357.1032017680463
 30
0.0
  0
VERTEX
  5
5CD
330
5C4
100
AcDbEntity
  8
0
 62
     7
420
 16777215
370
     9
100
AcDbVertex
100
AcDb2dVertex
 10
256.9240933610872
 20
362.1032017667985
 30
0.0
  0
VERTEX
  5
5CE
330
5C4
100
AcDbEntity
  8
0
 62
     7
420
 16777215
370
     9
100
AcDbVertex
100
AcDb2dVertex
 10
258.5457149822996
 20
362.1032017652415
 30
0.0
  0
VERTEX
  5
5CF
330
5C4
100
AcDbEntity
  8
0
 62
     7
420
 16777215
370
     9
100
AcDbVertex
100
AcDb2dVertex
 10
258.5457149790564
 20
358.7248233877126
 30
0.0
  0
VERTEX
  5
5D0
330
5C4
100
AcDbEntity
  8
0
 62
     7
420
 16777215
370
     9
100
AcDbVertex
100
AcDb2dVertex
 10
261.0283839813201
 20
358.7248233853261
 30
0.0
  0
VERTEX
  5
5D1
330
5C4
100
AcDbEntity
  8
0
 62
     7
420
 16777215
370
     9
100
AcDbVertex
100
AcDb2dVertex
 10
261.0283839845633
 20
362.103201762855
 30
0.0
  0
VERTEX
  5
5D2
330
5C4
100
AcDbEntity
  8
0
 62
     7
420
 16777215
370
     9
100
AcDbVertex
100
AcDb2dVertex
 10
262.6500056057794
 20
362.1032017612979
 30
0.0
  0
VERTEX
  5
5D3
330
5C4
100
AcDbEntity
  8
0
 62
     7
420
 16777215
370
     9
100
AcDbVertex
100
AcDb2dVertex
 10
262.6500056025361
 20
358.7248233837654
 30
0.0
  0
VERTEX
  5
5D4
330
5C4
100
AcDbEntity
  8
0
 62
     7
420
 16777215
370
     9
100
AcDbVertex
100
AcDb2dVertex
 10
266.1758498818381
 20
358.7248565306818
 30
0.0
  0
SEQEND
  5
5D5
330
5C4
100
AcDbEntity
  8
0
 62
     7
420
 16777215
370
     9
  0
ENDBLK
  5
5C3
330
5C0
100
AcDbEntity
  8
0
100
AcDbBlockEnd
  0
BLOCK
  5
5D8
330
5D6
100
AcDbEntity
  8
0
100
AcDbBlockBegin
  2
block 79
 70
     0
 10
0.0
 20
0.0
 30
0.0
  3
block 79
  1

  0
POLYLINE
  5
5DA
330
5D6
100
AcDbEntity
  8
0
 62
     7
420
 16777215
370
     9
100
AcDb2dPolyline
 66
     1
 10
0.0
 20
0.0
 30
0.0
  0
VERTEX
  5
5DB
330
5DA
100
AcDbEntity
  8
0
 62
     7
420
 16777215
370
     9
100
AcDbVertex
100
AcDb2dVertex
 10
320.0388984384281
 20
361.9760775842715
 30
0.0
  0
VERTEX
  5
5DC
330
5DA
100
AcDbEntity
  8
0
 62
     7
420
 16777215
370
     9
100
AcDbVertex
100
AcDb2dVertex
 10
323.3426548714961
 20
362.8988958926293
 30
0.0
  0
VERTEX
  5
5DD
330
5DA
100
AcDbEntity
  8
0
 62
     7
420
 16777215
370
     9
100
AcDbVertex
100
AcDb2dVertex
 10
325.870309780963
 20
361.9760765107003
 30
0.0
  0
VERTEX
  5
5DE
330
5DA
100
AcDbEntity
  8
0
 62
     7
420
 16777215
370
     9
100
AcDbVertex
100
AcDb2dVertex
 10
322.9546244250505
 20
359.0604104951581
 30
0.0
  0
VERTEX
  5
5DF
330
5DA
100
AcDbEntity
  8
0
 62
     7
420
 16777215
370
     9
100
AcDbVertex
100
AcDb2dVertex
 10
320.0388984384281
 20
361.9760775842715
 30
0.0
  0
SEQEND
  5
5E0
330
5DA
100
AcDbEntity
  8
0
 62
     7
420
 16777215
370
     9
  0
ENDBLK
  5
5D9
330
5D6
100
AcDbEntity
  8
0
100
AcDbBlockEnd
  0
BLOCK
  5
5E3
330
5E1
100
AcDbEntity
  8
0
100
AcDbBlockBegin
  2
block 80
 70
     0
 10
0.0
 20
0.0
 30
0.0
  3
block 80
  1

  0
POLYLINE
  5
5E5
330
5E1
100
AcDbEntity
  8
0
 62
     7
420
 16777215
370
     9
100
AcDb2dPolyline
 66
     1
 10
0.0
 20
0.0
 30
0.0
  0
VERTEX
  5
5E6
330
5E5
100
AcDbEntity
  8
0
 62
     7
420
 16777215
370
     9
100
AcDbVertex
100
AcDb2dVertex
 10
318.8921050662429
 20
354.9980445382625
 30
0.0
  0
VERTEX
  5
5E7
330
5E5
100
AcDbEntity
  8
0
 62
     7
420
 16777215
370
     9
100
AcDbVertex
100
AcDb2dVertex
 10
317.9694794273491
 20
358.3017357610061
 30
0.0
  0
VERTEX
  5
5E8
330
5E5
100
AcDbEntity
  8
0
 62
     7
420
 16777215
370
     9
100
AcDbVertex
100
AcDb2dVertex
 10
318.8922961863391
 20
360.8294194497048
 30
0.0
  0
VERTEX
  5
5E9
330
5E5
100
AcDbEntity
  8
0
 62
     7
420
 16777215
370
     9
100
AcDbVertex
100
AcDb2dVertex
 10
321.8079816873142
 20
357.9137339431309
 30
0.0
  0
VERTEX
  5
5EA
330
5E5
100
AcDbEntity
  8
0
 62
     7
420
 16777215
370
     9
100
AcDbVertex
100
AcDb2dVertex
 10
318.8921050662429
 20
354.9980445382625
 30
0.0
  0
SEQEND
  5
5EB
330
5E5
100
AcDbEntity
  8
0
 62
     7
420
 16777215
370
     9
  0
ENDBLK
  5
5E4
330
5E1
100
AcDbEntity
  8
0
100
AcDbBlockEnd
  0
BLOCK
  5
5EE
330
5EC
100
AcDbEntity
  8
0
100
AcDbBlockBegin
  2
block 81
 70
     0
 10
0.0
 20
0.0
 30
0.0
  3
block 81
  1

  0
POLYLINE
  5
5F0
330
5EC
100
AcDbEntity
  8
0
 62
     7
420
 16777215
370
     9
100
AcDb2dPolyline
 66
     1
 10
0.0
 20
0.0
 30
0.0
  0
VERTEX
  5
5F1
330
5F0
100
AcDbEntity
  8
0
 62
     7
420
 16777215
370
     9
100
AcDbVertex
100
AcDb2dVertex
 10
325.8701400382888
 20
353.8513771659836
 30
0.0
  0
VERTEX
  5
5F2
330
5F0
100
AcDbEntity
  8
0
 62
     7
420
 16777215
370
     9
100
AcDbVertex
100
AcDb2dVertex
 10
322.5666391238046
 20
352.9285601472529
 30
0.0
  0
VERTEX
  5
5F3
330
5F0
100
AcDbEntity
  8
0
 62
     7
420
 16777215
370
     9
100
AcDbVertex
100
AcDb2dVertex
 10
320.0389580261472
 20
353.8513791470668
 30
0.0
  0
VERTEX
  5
5F4
330
5F0
100
AcDbEntity
  8
0
 62
     7
420
 16777215
370
     9
100
AcDbVertex
100
AcDb2dVertex
 10
322.9546384852365
 20
356.7670771430003
 30
0.0
  0
VERTEX
  5
5F5
330
5F0
100
AcDbEntity
  8
0
 62
     7
420
 16777215
370
     9
100
AcDbVertex
100
AcDb2dVertex
 10
325.8701400382888
 20
353.8513771659836
 30
0.0
  0
SEQEND
  5
5F6
330
5F0
100
AcDbEntity
  8
0
 62
     7
420
 16777215
370
     9
  0
ENDBLK
  5
5EF
330
5EC
100
AcDbEntity
  8
0
100
AcDbBlockEnd
  0
BLOCK
  5
5F9
330
5F7
100
AcDbEntity
  8
0
100
AcDbBlockBegin
  2
block 82
 70
     0
 10
0.0
 20
0.0
 30
0.0
  3
block 82
  1

  0
POLYLINE
  5
5FB
330
5F7
100
AcDbEntity
  8
0
 62
     7
420
 16777215
370
     9
100
AcDb2dPolyline
 66
     1
 10
0.0
 20
0.0
 30
0.0
  0
VERTEX
  5
5FC
330
5FB
100
AcDbEntity
  8
0
 62
     7
420
 16777215
370
     9
100
AcDbVertex
100
AcDb2dVertex
 10
327.8890685692459
 20
357.1028840510025
 30
0.0
  0
VERTEX
  5
5FD
330
5FB
100
AcDbEntity
  8
0
 62
     7
420
 16777215
370
     9
100
AcDbVertex
100
AcDb2dVertex
 10
327.5161190985855
 20
355.8630320693901
 30
0.0
  0
VERTEX
  5
5FE
330
5FB
100
AcDbEntity
  8
0
 62
     7
420
 16777215
370
     9
100
AcDbVertex
100
AcDb2dVertex
 10
327.0169983287888
 20
354.9980365836109
 30
0.0
  0
VERTEX
  5
5FF
330
5FB
100
AcDbEntity
  8
0
 62
     7
420
 16777215
370
     9
100
AcDbVertex
100
AcDb2dVertex
 10
324.1012896308748
 20
357.9137452871273
 30
0.0
  0
VERTEX
  5
600
330
5FB
100
AcDbEntity
  8
0
 62
     7
420
 16777215
370
     9
100
AcDbVertex
100
AcDb2dVertex
 10
327.0169334104721
 20
360.8294008992398
 30
0.0
  0
VERTEX
  5
601
330
5FB
100
AcDbEntity
  8
0
 62
     7
420
 16777215
370
     9
100
AcDbVertex
100
AcDb2dVertex
 10
327.6220760700853
 20
359.7105511235477
 30
0.0
  0
VERTEX
  5
602
330
5FB
100
AcDbEntity
  8
0
 62
     7
420
 16777215
370
     9
100
AcDbVertex
100
AcDb2dVertex
 10
327.8892353823139
 20
358.7245719728326
 30
0.0
  0
VERTEX
  5
603
330
5FB
100
AcDbEntity
  8
0
 62
     7
420
 16777215
370
     9
100
AcDbVertex
100
AcDb2dVertex
 10
337.1410390031742
 20
358.7245388136344
 30
0.0
  0
VERTEX
  5
604
330
5FB
100
AcDbEntity
  8
0
 62
     7
420
 16777215
370
     9
100
AcDbVertex
100
AcDb2dVertex
 10
337.1410389983721
 20
353.7245388148858
 30
0.0
  0
VERTEX
  5
605
330
5FB
100
AcDbEntity
  8
0
 62
     7
420
 16777215
370
     9
100
AcDbVertex
100
AcDb2dVertex
 10
335.5194173771561
 20
353.7245388164465
 30
0.0
  0
VERTEX
  5
606
330
5FB
100
AcDbEntity
  8
0
 62
     7
420
 16777215
370
     9
100
AcDbVertex
100
AcDb2dVertex
 10
335.5194173804011
 20
357.102917193979
 30
0.0
  0
VERTEX
  5
607
330
5FB
100
AcDbEntity
  8
0
 62
     7
420
 16777215
370
     9
100
AcDbVertex
100
AcDb2dVertex
 10
333.0367483781411
 20
357.1029171963655
 30
0.0
  0
VERTEX
  5
608
330
5FB
100
AcDbEntity
  8
0
 62
     7
420
 16777215
370
     9
100
AcDbVertex
100
AcDb2dVertex
 10
333.0367483748923
 20
353.724538818833
 30
0.0
  0
VERTEX
  5
609
330
5FB
100
AcDbEntity
  8
0
 62
     7
420
 16777215
370
     9
100
AcDbVertex
100
AcDb2dVertex
 10
331.4151267536763
 20
353.7245388203937
 30
0.0
  0
VERTEX
  5
60A
330
5FB
100
AcDbEntity
  8
0
 62
     7
420
 16777215
370
     9
100
AcDbVertex
100
AcDb2dVertex
 10
331.415126756925
 20
357.1029171979226
 30
0.0
  0
VERTEX
  5
60B
330
5FB
100
AcDbEntity
  8
0
 62
     7
420
 16777215
370
     9
100
AcDbVertex
100
AcDb2dVertex
 10
327.8890685692459
 20
357.1028840510025
 30
0.0
  0
SEQEND
  5
60C
330
5FB
100
AcDbEntity
  8
0
 62
     7
420
 16777215
370
     9
  0
ENDBLK
  5
5FA
330
5F7
100
AcDbEntity
  8
0
100
AcDbBlockEnd
  0
ENDSEC
  0
SECTION
  2
ENTITIES
  0
INSERT
  5
41
330
1F
100
AcDbEntity
  8
0
100
AcDbBlockReference
  2
block 2
 10
0.0
 20
0.0
 30
0.0
  0
INSERT
  5
46
330
1F
100
AcDbEntity
  8
0
100
AcDbBlockReference
  2
block 3
 10
0.0
 20
0.0
 30
0.0
  0
INSERT
  5
4B
330
1F
100
AcDbEntity
  8
0
100
AcDbBlockReference
  2
block 4
 10
0.0
 20
0.0
 30
0.0
  0
INSERT
  5
5E
330
1F
100
AcDbEntity
  8
0
100
AcDbBlockReference
  2
block 5
 10
0.0
 20
0.0
 30
0.0
  0
INSERT
  5
71
330
1F
100
AcDbEntity
  8
0
100
AcDbBlockReference
  2
block 6
 10
0.0
 20
0.0
 30
0.0
  0
INSERT
  5
84
330
1F
100
AcDbEntity
  8
0
100
AcDbBlockReference
  2
block 7
 10
0.0
 20
0.0
 30
0.0
  0
INSERT
  5
97
330
1F
100
AcDbEntity
  8
0
100
AcDbBlockReference
  2
block 8
 10
0.0
 20
0.0
 30
0.0
  0
INSERT
  5
AA
330
1F
100
AcDbEntity
  8
0
100
AcDbBlockReference
  2
block 9
 10
0.0
 20
0.0
 30
0.0
  0
INSERT
  5
BD
330
1F
100
AcDbEntity
  8
0
100
AcDbBlockReference
  2
block 10
 10
0.0
 20
0.0
 30
0.0
  0
INSERT
  5
D0
330
1F
100
AcDbEntity
  8
0
100
AcDbBlockReference
  2
block 11
 10
0.0
 20
0.0
 30
0.0
  0
INSERT
  5
E3
330
1F
100
AcDbEntity
  8
0
100
AcDbBlockReference
  2
block 12
 10
0.0
 20
0.0
 30
0.0
  0
INSERT
  5
F6
330
1F
100
AcDbEntity
  8
0
100
AcDbBlockReference
  2
block 13
 10
0.0
 20
0.0
 30
0.0
  0
INSERT
  5
109
330
1F
100
AcDbEntity
  8
0
100
AcDbBlockReference
  2
block 14
 10
0.0
 20
0.0
 30
0.0
  0
INSERT
  5
11C
330
1F
100
AcDbEntity
  8
0
100
AcDbBlockReference
  2
block 15
 10
0.0
 20
0.0
 30
0.0
  0
INSERT
  5
12F
330
1F
100
AcDbEntity
  8
0
100
AcDbBlockReference
  2
block 16
 10
0.0
 20
0.0
 30
0.0
  0
INSERT
  5
142
330
1F
100
AcDbEntity
  8
0
100
AcDbBlockReference
  2
block 17
 10
0.0
 20
0.0
 30
0.0
  0
INSERT
  5
155
330
1F
100
AcDbEntity
  8
0
100
AcDbBlockReference
  2
block 18
 10
0.0
 20
0.0
 30
0.0
  0
INSERT
  5
168
330
1F
100
AcDbEntity
  8
0
100
AcDbBlockReference
  2
block 19
 10
0.0
 20
0.0
 30
0.0
  0
INSERT
  5
17B
330
1F
100
AcDbEntity
  8
0
100
AcDbBlockReference
  2
block 20
 10
0.0
 20
0.0
 30
0.0
  0
INSERT
  5
18E
330
1F
100
AcDbEntity
  8
0
100
AcDbBlockReference
  2
block 21
 10
0.0
 20
0.0
 30
0.0
  0
INSERT
  5
1A1
330
1F
100
AcDbEntity
  8
0
100
AcDbBlockReference
  2
block 22
 10
0.0
 20
0.0
 30
0.0
  0
INSERT
  5
1B4
330
1F
100
AcDbEntity
  8
0
100
AcDbBlockReference
  2
block 23
 10
0.0
 20
0.0
 30
0.0
  0
INSERT
  5
1C7
330
1F
100
AcDbEntity
  8
0
100
AcDbBlockReference
  2
block 24
 10
0.0
 20
0.0
 30
0.0
  0
INSERT
  5
1DA
330
1F
100
AcDbEntity
  8
0
100
AcDbBlockReference
  2
block 25
 10
0.0
 20
0.0
 30
0.0
  0
INSERT
  5
1ED
330
1F
100
AcDbEntity
  8
0
100
AcDbBlockReference
  2
block 26
 10
0.0
 20
0.0
 30
0.0
  0
INSERT
  5
200
330
1F
100
AcDbEntity
  8
0
100
AcDbBlockReference
  2
block 27
 10
0.0
 20
0.0
 30
0.0
  0
INSERT
  5
213
330
1F
100
AcDbEntity
  8
0
100
AcDbBlockReference
  2
block 28
 10
0.0
 20
0.0
 30
0.0
  0
INSERT
  5
226
330
1F
100
AcDbEntity
  8
0
100
AcDbBlockReference
  2
block 29
 10
0.0
 20
0.0
 30
0.0
  0
INSERT
  5
239
330
1F
100
AcDbEntity
  8
0
100
AcDbBlockReference
  2
block 30
 10
0.0
 20
0.0
 30
0.0
  0
INSERT
  5
24C
330
1F
100
AcDbEntity
  8
0
100
AcDbBlockReference
  2
block 31
 10
0.0
 20
0.0
 30
0.0
  0
INSERT
  5
25F
330
1F
100
AcDbEntity
  8
0
100
AcDbBlockReference
  2
block 32
 10
0.0
 20
0.0
 30
0.0
  0
INSERT
  5
272
330
1F
100
AcDbEntity
  8
0
100
AcDbBlockReference
  2
block 33
 10
0.0
 20
0.0
 30
0.0
  0
INSERT
  5
285
330
1F
100
AcDbEntity
  8
0
100
AcDbBlockReference
  2
block 34
 10
0.0
 20
0.0
 30
0.0
  0
INSERT
  5
298
330
1F
100
AcDbEntity
  8
0
100
AcDbBlockReference
  2
block 35
 10
0.0
 20
0.0
 30
0.0
  0
INSERT
  5
2AB
330
1F
100
AcDbEntity
  8
0
100
AcDbBlockReference
  2
block 36
 10
0.0
 20
0.0
 30
0.0
  0
INSERT
  5
2BE
330
1F
100
AcDbEntity
  8
0
100
AcDbBlockReference
  2
block 37
 10
0.0
 20
0.0
 30
0.0
  0
INSERT
  5
2D1
330
1F
100
AcDbEntity
  8
0
100
AcDbBlockReference
  2
block 38
 10
0.0
 20
0.0
 30
0.0
  0
INSERT
  5
2E4
330
1F
100
AcDbEntity
  8
0
100
AcDbBlockReference
  2
block 39
 10
0.0
 20
0.0
 30
0.0
  0
INSERT
  5
2F7
330
1F
100
AcDbEntity
  8
0
100
AcDbBlockReference
  2
block 40
 10
0.0
 20
0.0
 30
0.0
  0
INSERT
  5
30A
330
1F
100
AcDbEntity
  8
0
100
AcDbBlockReference
  2
block 41
 10
0.0
 20
0.0
 30
0.0
  0
INSERT
  5
31D
330
1F
100
AcDbEntity
  8
0
100
AcDbBlockReference
  2
block 42
 10
0.0
 20
0.0
 30
0.0
  0
INSERT
  5
330
330
1F
100
AcDbEntity
  8
0
100
AcDbBlockReference
  2
block 43
 10
0.0
 20
0.0
 30
0.0
  0
INSERT
  5
343
330
1F
100
AcDbEntity
  8
0
100
AcDbBlockReference
  2
block 44
 10
0.0
 20
0.0
 30
0.0
  0
INSERT
  5
356
330
1F
100
AcDbEntity
  8
0
100
AcDbBlockReference
  2
block 45
 10
0.0
 20
0.0
 30
0.0
  0
INSERT
  5
369
330
1F
100
AcDbEntity
  8
0
100
AcDbBlockReference
  2
block 46
 10
0.0
 20
0.0
 30
0.0
  0
INSERT
  5
37C
330
1F
100
AcDbEntity
  8
0
100
AcDbBlockReference
  2
block 47
 10
0.0
 20
0.0
 30
0.0
  0
INSERT
  5
38F
330
1F
100
AcDbEntity
  8
0
100
AcDbBlockReference
  2
block 48
 10
0.0
 20
0.0
 30
0.0
  0
INSERT
  5
3A2
330
1F
100
AcDbEntity
  8
0
100
AcDbBlockReference
  2
block 49
 10
0.0
 20
0.0
 30
0.0
  0
INSERT
  5
3B5
330
1F
100
AcDbEntity
  8
0
100
AcDbBlockReference
  2
block 50
 10
0.0
 20
0.0
 30
0.0
  0
INSERT
  5
3C8
330
1F
100
AcDbEntity
  8
0
100
AcDbBlockReference
  2
block 51
 10
0.0
 20
0.0
 30
0.0
  0
INSERT
  5
3DB
330
1F
100
AcDbEntity
  8
0
100
AcDbBlockReference
  2
block 52
 10
0.0
 20
0.0
 30
0.0
  0
INSERT
  5
3EE
330
1F
100
AcDbEntity
  8
0
100
AcDbBlockReference
  2
block 53
 10
0.0
 20
0.0
 30
0.0
  0
INSERT
  5
401
330
1F
100
AcDbEntity
  8
0
100
AcDbBlockReference
  2
block 54
 10
0.0
 20
0.0
 30
0.0
  0
INSERT
  5
414
330
1F
100
AcDbEntity
  8
0
100
AcDbBlockReference
  2
block 55
 10
0.0
 20
0.0
 30
0.0
  0
INSERT
  5
427
330
1F
100
AcDbEntity
  8
0
100
AcDbBlockReference
  2
block 56
 10
0.0
 20
0.0
 30
0.0
  0
INSERT
  5
43A
330
1F
100
AcDbEntity
  8
0
100
AcDbBlockReference
  2
block 57
 10
0.0
 20
0.0
 30
0.0
  0
INSERT
  5
44D
330
1F
100
AcDbEntity
  8
0
100
AcDbBlockReference
  2
block 58
 10
0.0
 20
0.0
 30
0.0
  0
INSERT
  5
460
330
1F
100
AcDbEntity
  8
0
100
AcDbBlockReference
  2
block 59
 10
0.0
 20
0.0
 30
0.0
  0
INSERT
  5
473
330
1F
100
AcDbEntity
  8
0
100
AcDbBlockReference
  2
block 60
 10
0.0
 20
0.0
 30
0.0
  0
INSERT
  5
486
330
1F
100
AcDbEntity
  8
0
100
AcDbBlockReference
  2
block 61
 10
0.0
 20
0.0
 30
0.0
  0
INSERT
  5
4A9
330
1F
100
AcDbEntity
  8
0
100
AcDbBlockReference
  2
block 62
 10
0.0
 20
0.0
 30
0.0
  0
INSERT
  5
4BC
330
1F
100
AcDbEntity
  8
0
100
AcDbBlockReference
  2
block 63
 10
0.0
 20
0.0
 30
0.0
  0
INSERT
  5
4CF
330
1F
100
AcDbEntity
  8
0
100
AcDbBlockReference
  2
block 64
 10
0.0
 20
0.0
 30
0.0
  0
INSERT
  5
4E2
330
1F
100
AcDbEntity
  8
0
100
AcDbBlockReference
  2
block 65
 10
0.0
 20
0.0
 30
0.0
  0
INSERT
  5
4F5
330
1F
100
AcDbEntity
  8
0
100
AcDbBlockReference
  2
block 66
 10
0.0
 20
0.0
 30
0.0
  0
INSERT
  5
508
330
1F
100
AcDbEntity
  8
0
100
AcDbBlockReference
  2
block 67
 10
0.0
 20
0.0
 30
0.0
  0
INSERT
  5
51B
330
1F
100
AcDbEntity
  8
0
100
AcDbBlockReference
  2
block 68
 10
0.0
 20
0.0
 30
0.0
  0
INSERT
  5
52E
330
1F
100
AcDbEntity
  8
0
100
AcDbBlockReference
  2
block 69
 10
0.0
 20
0.0
 30
0.0
  0
INSERT
  5
541
330
1F
100
AcDbEntity
  8
0
100
AcDbBlockReference
  2
block 70
 10
0.0
 20
0.0
 30
0.0
  0
INSERT
  5
554
330
1F
100
AcDbEntity
  8
0
100
AcDbBlockReference
  2
block 71
 10
0.0
 20
0.0
 30
0.0
  0
INSERT
  5
567
330
1F
100
AcDbEntity
  8
0
100
AcDbBlockReference
  2
block 72
 10
0.0
 20
0.0
 30
0.0
  0
INSERT
  5
57A
330
1F
100
AcDbEntity
  8
0
100
AcDbBlockReference
  2
block 73
 10
0.0
 20
0.0
 30
0.0
  0
INSERT
  5
58D
330
1F
100
AcDbEntity
  8
0
100
AcDbBlockReference
  2
block 74
 10
0.0
 20
0.0
 30
0.0
  0
INSERT
  5
5A0
330
1F
100
AcDbEntity
  8
0
100
AcDbBlockReference
  2
block 75
 10
0.0
 20
0.0
 30
0.0
  0
INSERT
  5
5AB
330
1F
100
AcDbEntity
  8
0
100
AcDbBlockReference
  2
block 76
 10
0.0
 20
0.0
 30
0.0
  0
INSERT
  5
5B6
330
1F
100
AcDbEntity
  8
0
100
AcDbBlockReference
  2
block 77
 10
0.0
 20
0.0
 30
0.0
  0
INSERT
  5
5C1
330
1F
100
AcDbEntity
  8
0
100
AcDbBlockReference
  2
block 78
 10
0.0
 20
0.0
 30
0.0
  0
INSERT
  5
5D7
330
1F
100
AcDbEntity
  8
0
100
AcDbBlockReference
  2
block 79
 10
0.0
 20
0.0
 30
0.0
  0
INSERT
  5
5E2
330
1F
100
AcDbEntity
  8
0
100
AcDbBlockReference
  2
block 80
 10
0.0
 20
0.0
 30
0.0
  0
INSERT
  5
5ED
330
1F
100
AcDbEntity
  8
0
100
AcDbBlockReference
  2
block 81
 10
0.0
 20
0.0
 30
0.0
  0
INSERT
  5
5F8
330
1F
100
AcDbEntity
  8
0
100
AcDbBlockReference
  2
block 82
 10
0.0
 20
0.0
 30
0.0
  0
ENDSEC
  0
SECTION
  2
OBJECTS
  0
DICTIONARY
  5
C
330
0
100
AcDbDictionary
281
     1
  3
ACAD_GROUP
350
D
  3
ACAD_LAYOUT
350
1A
  3
ACAD_MATERIAL
350
3B
  3
ACAD_MLEADERSTYLE
350
60E
  3
ACAD_MLINESTYLE
350
17
  3
ACAD_PLOTSETTINGS
350
19
  3
ACAD_PLOTSTYLENAME
350
E
  3
ACAD_TABLESTYLE
350
60D
  3
ACAD_VISUALSTYLE
350
2A
  0
SUN
  5
3F
330
29
100
AcDbSun
 90
        1
290
     0
 63
     7
421
 16777215
 40
1.0
291
     1
 91
  2455826
 92
 54000000
292
     0
 70
     2
 71
   256
280
     1
  0
DICTIONARY
  5
D
102
{ACAD_REACTORS
330
C
102
}
330
C
100
AcDbDictionary
281
     1
  0
DICTIONARY
  5
1A
102
{ACAD_REACTORS
330
C
102
}
330
C
100
AcDbDictionary
281
     1
  3
Layout1
350
1E
  3
Layout2
350
26
  3
Model
350
22
  0
DICTIONARY
  5
3B
102
{ACAD_REACTORS
330
C
102
}
330
C
100
AcDbDictionary
281
     1
  3
ByBlock
350
3D
  3
ByLayer
350
3C
  3
Global
350
3E
  0
DICTIONARY
  5
60E
102
{ACAD_REACTORS
330
C
102
}
330
C
100
AcDbDictionary
281
     1
  0
DICTIONARY
  5
17
102
{ACAD_REACTORS
330
C
102
}
330
C
100
AcDbDictionary
281
     1
  3
Standard
350
18
  0
DICTIONARY
  5
19
102
{ACAD_REACTORS
330
C
102
}
330
C
100
AcDbDictionary
281
     1
  0
ACDBDICTIONARYWDFLT
  5
E
102
{ACAD_REACTORS
330
C
102
}
330
C
100
AcDbDictionary
281
     1
  3
Normal
350
F
100
AcDbDictionaryWithDefault
340
F
  0
DICTIONARY
  5
60D
102
{ACAD_REACTORS
330
C
102
}
330
C
100
AcDbDictionary
281
     1
  0
DICTIONARY
  5
2A
102
{ACAD_REACTORS
330
C
102
}
330
C
100
AcDbDictionary
281
     1
  3
2dWireframe
350
2F
  3
3D Hidden
350
31
  3
3dWireframe
350
30
  3
Basic
350
32
  3
Brighten
350
36
  3
ColorChange
350
3A
  3
Conceptual
350
34
  3
Dim
350
35
  3
Facepattern
350
39
  3
Flat
350
2B
  3
FlatWithEdges
350
2C
  3
Gouraud
350
2D
  3
GouraudWithEdges
350
2E
  3
Linepattern
350
38
  3
Realistic
350
33
  3
Thicken
350
37
  0
LAYOUT
  5
1E
102
{ACAD_REACTORS
330
1A
102
}
330
1A
100
AcDbPlotSettings
  1

  2
none_device
  4

  6

 40
0.0
 41
0.0
 42
0.0
 43
0.0
 44
0.0
 45
0.0
 46
0.0
 47
0.0
 48
0.0
 49
0.0
140
0.0
141
0.0
142
1.0
143
1.0
 70
   688
 72
     0
 73
     0
 74
     5
  7

 75
    16
 76
     0
 77
     2
 78
   300
147
1.0
148
0.0
149
0.0
100
AcDbLayout
  1
Layout1
 70
     1
 71
     1
 10
0.0
 20
0.0
 11
12.0
 21
9.0
 12
0.0
 22
0.0
 32
0.0
 14
1.000000000000000E+20
 24
1.000000000000000E+20
 34
1.000000000000000E+20
 15
-1.000000000000000E+20
 25
-1.000000000000000E+20
 35
-1.000000000000000E+20
146
0.0
 13
0.0
 23
0.0
 33
0.0
 16
1.0
 26
0.0
 36
0.0
 17
0.0
 27
1.0
 37
0.0
 76
     0
330
1B
  0
LAYOUT
  5
26
102
{ACAD_REACTORS
330
1A
102
}
330
1A
100
AcDbPlotSettings
  1

  2
none_device
  4

  6

 40
0.0
 41
0.0
 42
0.0
 43
0.0
 44
0.0
 45
0.0
 46
0.0
 47
0.0
 48
0.0
 49
0.0
140
0.0
141
0.0
142
1.0
143
1.0
 70
   688
 72
     0
 73
     0
 74
     5
  7

 75
    16
 76
     0
 77
     2
 78
   300
147
1.0
148
0.0
149
0.0
100
AcDbLayout
  1
Layout2
 70
     1
 71
     2
 10
0.0
 20
0.0
 11
0.0
 21
0.0
 12
0.0
 22
0.0
 32
0.0
 14
0.0
 24
0.0
 34
0.0
 15
0.0
 25
0.0
 35
0.0
146
0.0
 13
0.0
 23
0.0
 33
0.0
 16
1.0
 26
0.0
 36
0.0
 17
0.0
 27
1.0
 37
0.0
 76
     0
330
23
  0
LAYOUT
  5
22
102
{ACAD_REACTORS
330
1A
102
}
330
1A
100
AcDbPlotSettings
  1

  2
none_device
  4

  6

 40
0.0
 41
0.0
 42
0.0
 43
0.0
 44
0.0
 45
0.0
 46
0.0
 47
0.0
 48
0.0
 49
0.0
140
0.0
141
0.0
142
1.0
143
1.0
 70
  1712
 72
     0
 73
     0
 74
     0
  7

 75
     0
 76
     0
 77
     2
 78
   300
147
1.0
148
0.0
149
0.0
100
AcDbLayout
  1
Model
 70
     1
 71
     0
 10
0.0
 20
0.0
 11
12.0
 21
9.0
 12
0.0
 22
0.0
 32
0.0
 14
1.000000000000000E+20
 24
1.000000000000000E+20
 34
1.000000000000000E+20
 15
-1.000000000000000E+20
 25
-1.000000000000000E+20
 35
-1.000000000000000E+20
146
0.0
 13
0.0
 23
0.0
 33
0.0
 16
1.0
 26
0.0
 36
0.0
 17
0.0
 27
1.0
 37
0.0
 76
     0
330
1F
331
29
  0
MATERIAL
  5
3D
102
{ACAD_REACTORS
330
3B
102
}
330
3B
100
AcDbMaterial
  1
ByBlock
 72
     1
 94
      127
  0
MATERIAL
  5
3C
102
{ACAD_REACTORS
330
3B
102
}
330
3B
100
AcDbMaterial
  1
ByLayer
 72
     1
 94
      127
  0
MATERIAL
  5
3E
102
{ACAD_REACTORS
330
3B
102
}
330
3B
100
AcDbMaterial
  1
Global
 72
     1
 94
      127
  0
MLINESTYLE
  5
18
102
{ACAD_REACTORS
330
17
102
}
330
17
100
AcDbMlineStyle
  2
Standard
 70
     0
  3

 62
   256
 51
90.0
 52
90.0
 71
     2
 49
0.5
 62
   256
  6
BYLAYER
 49
-0.5
 62
   256
  6
BYLAYER
  0
ACDBPLACEHOLDER
  5
F
102
{ACAD_REACTORS
330
E
102
}
330
E
  0
VISUALSTYLE
  5
2F
102
{ACAD_REACTORS
330
2A
102
}
330
2A
100
AcDbVisualStyle
  2
2dWireframe
 70
     4
177
     2
291
     0
 71
     0
176
     1
 72
     2
176
     1
 73
     0
176
     1
 90
        0
176
     1
 40
-0.6
176
     1
 41
-30.0
176
     1
 62
     5
 63
     7
421
 16777215
176
     1
 74
     1
176
     1
 91
        4
176
     1
 64
     7
176
     1
 65
   257
176
     1
 75
     1
176
     1
175
     1
176
     1
 42
1.0
176
     1
 92
        0
176
     1
 66
   257
176
     1
 43
1.0
176
     1
 76
     1
176
     1
 77
     6
176
     1
 78
     2
176
     1
 67
     7
176
     1
 79
     5
176
     1
170
     0
176
     1
171
     0
176
     1
290
     0
176
     1
 93
        1
176
     1
 44
0.0
176
     1
173
     0
176
     1
  0
VISUALSTYLE
  5
31
102
{ACAD_REACTORS
330
2A
102
}
330
2A
100
AcDbVisualStyle
  2
3D Hidden
 70
     6
177
     2
291
     0
 71
     1
176
     1
 72
     2
176
     1
 73
     2
176
     1
 90
        0
176
     1
 40
-0.6
176
     1
 41
-30.0
176
     1
 62
     5
 63
     7
421
 16777215
176
     1
 74
     2
176
     1
 91
        2
176
     1
 64
     7
176
     1
 65
   257
176
     1
 75
     2
176
     1
175
     1
176
     1
 42
40.0
176
     1
 92
        0
176
     1
 66
   257
176
     1
 43
1.0
176
     1
 76
     1
176
     1
 77
     6
176
     1
 78
     2
176
     1
 67
     7
176
     1
 79
     3
176
     1
170
     0
176
     1
171
     0
176
     1
290
     0
176
     1
 93
        1
176
     1
 44
0.0
176
     1
173
     0
176
     1
  0
VISUALSTYLE
  5
30
102
{ACAD_REACTORS
330
2A
102
}
330
2A
100
AcDbVisualStyle
  2
3dWireframe
 70
     5
177
     2
291
     0
 71
     0
176
     1
 72
     2
176
     1
 73
     0
176
     1
 90
        0
176
     1
 40
-0.6
176
     1
 41
-30.0
176
     1
 62
     5
 63
     7
421
 16777215
176
     1
 74
     1
176
     1
 91
        4
176
     1
 64
     7
176
     1
 65
   257
176
     1
 75
     1
176
     1
175
     1
176
     1
 42
1.0
176
     1
 92
        0
176
     1
 66
   257
176
     1
 43
1.0
176
     1
 76
     1
176
     1
 77
     6
176
     1
 78
     2
176
     1
 67
     7
176
     1
 79
     5
176
     1
170
     0
176
     1
171
     0
176
     1
290
     0
176
     1
 93
        1
176
     1
 44
0.0
176
     1
173
     0
176
     1
  0
VISUALSTYLE
  5
32
102
{ACAD_REACTORS
330
2A
102
}
330
2A
100
AcDbVisualStyle
  2
Basic
 70
     7
177
     2
291
     1
 71
     1
176
     1
 72
     0
176
     1
 73
     1
176
     1
 90
        0
176
     1
 40
-0.6
176
     1
 41
-30.0
176
     1
 62
     5
 63
     7
421
 16777215
176
     1
 74
     0
176
     1
 91
        4
176
     1
 64
     7
176
     1
 65
   257
176
     1
 75
     1
176
     1
175
     1
176
     1
 42
1.0
176
     1
 92
        8
176
     1
 66
     7
176
     1
 43
1.0
176
     1
 76
     1
176
     1
 77
     6
176
     1
 78
     2
176
     1
 67
     7
176
     1
 79
     5
176
     1
170
     0
176
     1
171
     0
176
     1
290
     0
176
     1
 93
        1
176
     1
 44
0.0
176
     1
173
     0
176
     1
  0
VISUALSTYLE
  5
36
102
{ACAD_REACTORS
330
2A
102
}
330
2A
100
AcDbVisualStyle
  2
Brighten
 70
    12
177
     2
291
     1
 71
     2
176
     1
 72
     2
176
     1
 73
     0
176
     1
 90
        0
176
     1
 40
-0.6
176
     1
 41
-30.0
176
     1
 62
     5
 63
     7
421
 16777215
176
     1
 74
     1
176
     1
 91
        4
176
     1
 64
     7
176
     1
 65
   257
176
     1
 75
     1
176
     1
175
     1
176
     1
 42
1.0
176
     1
 92
        8
176
     1
 66
     7
176
     1
 43
1.0
176
     1
 76
     1
176
     1
 77
     6
176
     1
 78
     2
176
     1
 67
     7
176
     1
 79
     5
176
     1
170
     0
176
     1
171
     0
176
     1
290
     0
176
     1
 93
        1
176
     1
 44
50.0
176
     1
173
     0
176
     1
  0
VISUALSTYLE
  5
3A
102
{ACAD_REACTORS
330
2A
102
}
330
2A
100
AcDbVisualStyle
  2
ColorChange
 70
    16
177
     2
291
     1
 71
     2
176
     1
 72
     2
176
     1
 73
     3
176
     1
 90
        0
176
     1
 40
-0.6
176
     1
 41
-30.0
176
     1
 62
     5
 63
     8
421
  8421504
176
     1
 74
     1
176
     1
 91
        4
176
     1
 64
     7
176
     1
 65
   257
176
     1
 75
     1
176
     1
175
     1
176
     1
 42
1.0
176
     1
 92
        8
176
     1
 66
     8
424
  8421504
176
     1
 43
1.0
176
     1
 76
     1
176
     1
 77
     6
176
     1
 78
     2
176
     1
 67
     7
176
     1
 79
     5
176
     1
170
     0
176
     1
171
     0
176
     1
290
     0
176
     1
 93
        1
176
     1
 44
0.0
176
     1
173
     0
176
     1
  0
VISUALSTYLE
  5
34
102
{ACAD_REACTORS
330
2A
102
}
330
2A
100
AcDbVisualStyle
  2
Conceptual
 70
     9
177
     2
291
     0
 71
     3
176
     1
 72
     2
176
     1
 73
     0
176
     1
 90
        0
176
     1
 40
-0.6
176
     1
 41
-30.0
176
     1
 62
     5
 63
     7
421
 16777215
176
     1
 74
     2
176
     1
 91
        2
176
     1
 64
     7
176
     1
 65
   257
176
     1
 75
     1
176
     1
175
     1
176
     1
 42
40.0
176
     1
 92
        8
176
     1
 66
     7
176
     1
 43
1.0
176
     1
 76
     1
176
     1
 77
     6
176
     1
 78
     2
176
     1
 67
     7
176
     1
 79
     3
176
     1
170
     0
176
     1
171
     0
176
     1
290
     0
176
     1
 93
        1
176
     1
 44
0.0
176
     1
173
     0
176
     1
  0
VISUALSTYLE
  5
35
102
{ACAD_REACTORS
330
2A
102
}
330
2A
100
AcDbVisualStyle
  2
Dim
 70
    11
177
     2
291
     1
 71
     2
176
     1
 72
     2
176
     1
 73
     0
176
     1
 90
        0
176
     1
 40
-0.6
176
     1
 41
-30.0
176
     1
 62
     5
 63
     7
421
 16777215
176
     1
 74
     1
176
     1
 91
        4
176
     1
 64
     7
176
     1
 65
   257
176
     1
 75
     1
176
     1
175
     1
176
     1
 42
1.0
176
     1
 92
        8
176
     1
 66
     7
176
     1
 43
1.0
176
     1
 76
     1
176
     1
 77
     6
176
     1
 78
     2
176
     1
 67
     7
176
     1
 79
     5
176
     1
170
     0
176
     1
171
     0
176
     1
290
     0
176
     1
 93
        1
176
     1
 44
-50.0
176
     1
173
     0
176
     1
  0
VISUALSTYLE
  5
39
102
{ACAD_REACTORS
330
2A
102
}
330
2A
100
AcDbVisualStyle
  2
Facepattern
 70
    15
177
     2
291
     1
 71
     2
176
     1
 72
     2
176
     1
 73
     0
176
     1
 90
        0
176
     1
 40
-0.6
176
     1
 41
-30.0
176
     1
 62
     5
 63
     7
421
 16777215
176
     1
 74
     1
176
     1
 91
        4
176
     1
 64
     7
176
     1
 65
   257
176
     1
 75
     1
176
     1
175
     1
176
     1
 42
1.0
176
     1
 92
        8
176
     1
 66
     7
176
     1
 43
1.0
176
     1
 76
     1
176
     1
 77
     6
176
     1
 78
     2
176
     1
 67
     7
176
     1
 79
     5
176
     1
170
     0
176
     1
171
     0
176
     1
290
     0
176
     1
 93
        1
176
     1
 44
0.0
176
     1
173
     0
176
     1
  0
VISUALSTYLE
  5
2B
102
{ACAD_REACTORS
330
2A
102
}
330
2A
100
AcDbVisualStyle
  2
Flat
 70
     0
177
     2
291
     1
 71
     2
176
     1
 72
     1
176
     1
 73
     1
176
     1
 90
        2
176
     1
 40
-0.6
176
     1
 41
30.0
176
     1
 62
     5
 63
     7
421
 16777215
176
     1
 74
     0
176
     1
 91
        4
176
     1
 64
     7
176
     1
 65
   257
176
     1
 75
     1
176
     1
175
     1
176
     1
 42
1.0
176
     1
 92
        8
176
     1
 66
     7
176
     1
 43
1.0
176
     1
 76
     1
176
     1
 77
     6
176
     1
 78
     2
176
     1
 67
     7
176
     1
 79
     5
176
     1
170
     0
176
     1
171
     0
176
     1
290
     0
176
     1
 93
       13
176
     1
 44
0.0
176
     1
173
     0
176
     1
  0
VISUALSTYLE
  5
2C
102
{ACAD_REACTORS
330
2A
102
}
330
2A
100
AcDbVisualStyle
  2
FlatWithEdges
 70
     1
177
     2
291
     1
 71
     2
176
     1
 72
     1
176
     1
 73
     1
176
     1
 90
        2
176
     1
 40
-0.6
176
     1
 41
30.0
176
     1
 62
     5
 63
     7
421
 16777215
176
     1
 74
     1
176
     1
 91
        4
176
     1
 64
     7
176
     1
 65
   257
176
     1
 75
     1
176
     1
175
     1
176
     1
 42
1.0
176
     1
 92
        0
176
     1
 66
   257
176
     1
 43
1.0
176
     1
 76
     1
176
     1
 77
     6
176
     1
 78
     2
176
     1
 67
     7
176
     1
 79
     5
176
     1
170
     0
176
     1
171
     0
176
     1
290
     0
176
     1
 93
       13
176
     1
 44
0.0
176
     1
173
     0
176
     1
  0
VISUALSTYLE
  5
2D
102
{ACAD_REACTORS
330
2A
102
}
330
2A
100
AcDbVisualStyle
  2
Gouraud
 70
     2
177
     2
291
     1
 71
     2
176
     1
 72
     2
176
     1
 73
     1
176
     1
 90
        2
176
     1
 40
-0.6
176
     1
 41
30.0
176
     1
 62
     5
 63
     7
421
 16777215
176
     1
 74
     0
176
     1
 91
        4
176
     1
 64
     7
176
     1
 65
   257
176
     1
 75
     1
176
     1
175
     1
176
     1
 42
1.0
176
     1
 92
        0
176
     1
 66
     7
176
     1
 43
1.0
176
     1
 76
     1
176
     1
 77
     6
176
     1
 78
     2
176
     1
 67
     7
176
     1
 79
     5
176
     1
170
     0
176
     1
171
     0
176
     1
290
     0
176
     1
 93
       13
176
     1
 44
0.0
176
     1
173
     0
176
     1
  0
VISUALSTYLE
  5
2E
102
{ACAD_REACTORS
330
2A
102
}
330
2A
100
AcDbVisualStyle
  2
GouraudWithEdges
 70
     3
177
     2
291
     1
 71
     2
176
     1
 72
     2
176
     1
 73
     1
176
     1
 90
        2
176
     1
 40
-0.6
176
     1
 41
30.0
176
     1
 62
     5
 63
     7
421
 16777215
176
     1
 74
     1
176
     1
 91
        4
176
     1
 64
     7
176
     1
 65
   257
176
     1
 75
     1
176
     1
175
     1
176
     1
 42
1.0
176
     1
 92
        0
176
     1
 66
   257
176
     1
 43
1.0
176
     1
 76
     1
176
     1
 77
     6
176
     1
 78
     2
176
     1
 67
     7
176
     1
 79
     5
176
     1
170
     0
176
     1
171
     0
176
     1
290
     0
176
     1
 93
       13
176
     1
 44
0.0
176
     1
173
     0
176
     1
  0
VISUALSTYLE
  5
38
102
{ACAD_REACTORS
330
2A
102
}
330
2A
100
AcDbVisualStyle
  2
Linepattern
 70
    14
177
     2
291
     1
 71
     2
176
     1
 72
     2
176
     1
 73
     0
176
     1
 90
        0
176
     1
 40
-0.6
176
     1
 41
-30.0
176
     1
 62
     5
 63
     7
421
 16777215
176
     1
 74
     1
176
     1
 91
        4
176
     1
 64
     7
176
     1
 65
   257
176
     1
 75
     7
176
     1
175
     7
176
     1
 42
1.0
176
     1
 92
        8
176
     1
 66
     7
176
     1
 43
1.0
176
     1
 76
     1
176
     1
 77
     6
176
     1
 78
     2
176
     1
 67
     7
176
     1
 79
     5
176
     1
170
     0
176
     1
171
     0
176
     1
290
     0
176
     1
 93
        1
176
     1
 44
0.0
176
     1
173
     0
176
     1
  0
VISUALSTYLE
  5
33
102
{ACAD_REACTORS
330
2A
102
}
330
2A
100
AcDbVisualStyle
  2
Realistic
 70
     8
177
     2
291
     0
 71
     2
176
     1
 72
     2
176
     1
 73
     0
176
     1
 90
        0
176
     1
 40
-0.6
176
     1
 41
-30.0
176
     1
 62
     5
 63
     7
421
 16777215
176
     1
 74
     1
176
     1
 91
        0
176
     1
 64
     7
176
     1
 65
   257
176
     1
 75
     1
176
     1
175
     1
176
     1
 42
1.0
176
     1
 92
        8
176
     1
 66
     8
424
  7895160
176
     1
 43
1.0
176
     1
 76
     1
176
     1
 77
     6
176
     1
 78
     2
176
     1
 67
     7
176
     1
 79
     5
176
     1
170
     0
176
     1
171
     0
176
     1
290
     0
176
     1
 93
       13
176
     1
 44
0.0
176
     1
173
     0
176
     1
  0
VISUALSTYLE
  5
37
102
{ACAD_REACTORS
330
2A
102
}
330
2A
100
AcDbVisualStyle
  2
Thicken
 70
    13
177
     2
291
     1
 71
     2
176
     1
 72
     2
176
     1
 73
     0
176
     1
 90
        0
176
     1
 40
-0.6
176
     1
 41
-30.0
176
     1
 62
     5
 63
     7
421
 16777215
176
     1
 74
     1
176
     1
 91
        4
176
     1
 64
     7
176
     1
 65
   257
176
     1
 75
     1
176
     1
175
     1
176
     1
 42
1.0
176
     1
 92
       12
176
     1
 66
     7
176
     1
 43
1.0
176
     1
 76
     1
176
     1
 77
     6
176
     1
 78
     2
176
     1
 67
     7
176
     1
 79
     5
176
     1
170
     0
176
     1
171
     0
176
     1
290
     0
176
     1
 93
        1
176
     1
 44
0.0
176
     1
173
     0
176
     1
  0
ENDSEC
  0
EOF
