  0
SECTION
  2
HEADER
  9
$ACADVER
  1
AC1018
  9
$ACADMAINTVER
 70
     0
  9
$DWGCODEPAGE
  3
ANSI_936
  9
$INSBASE
 10
0.0
 20
0.0
 30
0.0
  9
$EXTMIN
 10
-211.7252130376253
 20
-58.01665505659157
 30
-0.0000000000000001
  9
$EXTMAX
 10
138.8871369623748
 20
70.99507494340926
 30
0.0
  9
$LIMMIN
 10
0.0
 20
0.0
  9
$LIMMAX
 10
12.0
 20
9.0
  9
$ORTHOMODE
 70
     0
  9
$REGENMODE
 70
     1
  9
$FILLMODE
 70
     1
  9
$QTEXTMODE
 70
     0
  9
$MIRRTEXT
 70
     1
  9
$LTSCALE
 40
1.0
  9
$ATTMODE
 70
     1
  9
$TEXTSIZE
 40
0.2
  9
$TRACEWID
 40
0.05
  9
$TEXTSTYLE
  7
Standard
  9
$CLAYER
  8
0
  9
$CELTYPE
  6
ByLayer
  9
$CECOLOR
 62
   256
  9
$CELTSCALE
 40
1.0
  9
$DISPSILH
 70
     0
  9
$DIMSCALE
 40
1.0
  9
$DIMASZ
 40
0.18
  9
$DIMEXO
 40
0.0625
  9
$DIMDLI
 40
0.38
  9
$DIMRND
 40
0.0
  9
$DIMDLE
 40
0.0
  9
$DIMEXE
 40
0.18
  9
$DIMTP
 40
0.0
  9
$DIMTM
 40
0.0
  9
$DIMTXT
 40
0.18
  9
$DIMCEN
 40
0.09
  9
$DIMTSZ
 40
0.0
  9
$DIMTOL
 70
     0
  9
$DIMLIM
 70
     0
  9
$DIMTIH
 70
     1
  9
$DIMTOH
 70
     1
  9
$DIMSE1
 70
     0
  9
$DIMSE2
 70
     0
  9
$DIMTAD
 70
     0
  9
$DIMZIN
 70
     0
  9
$DIMBLK
  1

  9
$DIMASO
 70
     1
  9
$DIMSHO
 70
     1
  9
$DIMPOST
  1

  9
$DIMAPOST
  1

  9
$DIMALT
 70
     0
  9
$DIMALTD
 70
     2
  9
$DIMALTF
 40
25.4
  9
$DIMLFAC
 40
1.0
  9
$DIMTOFL
 70
     0
  9
$DIMTVP
 40
0.0
  9
$DIMTIX
 70
     0
  9
$DIMSOXD
 70
     0
  9
$DIMSAH
 70
     0
  9
$DIMBLK1
  1

  9
$DIMBLK2
  1

  9
$DIMSTYLE
  2
Standard
  9
$DIMCLRD
 70
     0
  9
$DIMCLRE
 70
     0
  9
$DIMCLRT
 70
     0
  9
$DIMTFAC
 40
1.0
  9
$DIMGAP
 40
0.09
  9
$DIMJUST
 70
     0
  9
$DIMSD1
 70
     0
  9
$DIMSD2
 70
     0
  9
$DIMTOLJ
 70
     1
  9
$DIMTZIN
 70
     0
  9
$DIMALTZ
 70
     0
  9
$DIMALTTZ
 70
     0
  9
$DIMUPT
 70
     0
  9
$DIMDEC
 70
     4
  9
$DIMTDEC
 70
     4
  9
$DIMALTU
 70
     2
  9
$DIMALTTD
 70
     2
  9
$DIMTXSTY
  7
Standard
  9
$DIMAUNIT
 70
     0
  9
$DIMADEC
 70
     0
  9
$DIMALTRND
 40
0.0
  9
$DIMAZIN
 70
     0
  9
$DIMDSEP
 70
    46
  9
$DIMATFIT
 70
     3
  9
$DIMFRAC
 70
     0
  9
$DIMLDRBLK
  1

  9
$DIMLUNIT
 70
     2
  9
$DIMLWD
 70
    -2
  9
$DIMLWE
 70
    -2
  9
$DIMTMOVE
 70
     2
  9
$LUNITS
 70
     2
  9
$LUPREC
 70
     3
  9
$SKETCHINC
 40
0.1
  9
$FILLETRAD
 40
0.5
  9
$AUNITS
 70
     0
  9
$AUPREC
 70
     0
  9
$MENU
  1
.
  9
$ELEVATION
 40
0.0
  9
$PELEVATION
 40
0.0
  9
$THICKNESS
 40
0.0
  9
$LIMCHECK
 70
     0
  9
$CHAMFERA
 40
0.5
  9
$CHAMFERB
 40
0.5
  9
$CHAMFERC
 40
1.0
  9
$CHAMFERD
 40
0.0
  9
$SKPOLY
 70
     0
  9
$TDCREATE
 40
2458122.984967269
  9
$TDUCREATE
 40
2458122.651633935
  9
$TDUPDATE
 40
2458122.984980845
  9
$TDUUPDATE
 40
2458122.651647511
  9
$TDINDWG
 40
0.0000000116
  9
$TDUSRTIMER
 40
0.0000000116
  9
$USRTIMER
 70
     1
  9
$ANGBASE
 50
0.0
  9
$ANGDIR
 70
     0
  9
$PDMODE
 70
     0
  9
$PDSIZE
 40
0.0
  9
$PLINEWID
 40
0.0
  9
$SPLFRAME
 70
     0
  9
$SPLINETYPE
 70
     6
  9
$SPLINESEGS
 70
     8
  9
$HANDSEED
  5
4F4
  9
$SURFTAB1
 70
     6
  9
$SURFTAB2
 70
     6
  9
$SURFTYPE
 70
     6
  9
$SURFU
 70
     6
  9
$SURFV
 70
     6
  9
$UCSBASE
  2

  9
$UCSNAME
  2

  9
$UCSORG
 10
0.0
 20
0.0
 30
0.0
  9
$UCSXDIR
 10
1.0
 20
0.0
 30
0.0
  9
$UCSYDIR
 10
0.0
 20
1.0
 30
0.0
  9
$UCSORTHOREF
  2

  9
$UCSORTHOVIEW
 70
     0
  9
$UCSORGTOP
 10
0.0
 20
0.0
 30
0.0
  9
$UCSORGBOTTOM
 10
0.0
 20
0.0
 30
0.0
  9
$UCSORGLEFT
 10
0.0
 20
0.0
 30
0.0
  9
$UCSORGRIGHT
 10
0.0
 20
0.0
 30
0.0
  9
$UCSORGFRONT
 10
0.0
 20
0.0
 30
0.0
  9
$UCSORGBACK
 10
0.0
 20
0.0
 30
0.0
  9
$PUCSBASE
  2

  9
$PUCSNAME
  2

  9
$PUCSORG
 10
0.0
 20
0.0
 30
0.0
  9
$PUCSXDIR
 10
1.0
 20
0.0
 30
0.0
  9
$PUCSYDIR
 10
0.0
 20
1.0
 30
0.0
  9
$PUCSORTHOREF
  2

  9
$PUCSORTHOVIEW
 70
     0
  9
$PUCSORGTOP
 10
0.0
 20
0.0
 30
0.0
  9
$PUCSORGBOTTOM
 10
0.0
 20
0.0
 30
0.0
  9
$PUCSORGLEFT
 10
0.0
 20
0.0
 30
0.0
  9
$PUCSORGRIGHT
 10
0.0
 20
0.0
 30
0.0
  9
$PUCSORGFRONT
 10
0.0
 20
0.0
 30
0.0
  9
$PUCSORGBACK
 10
0.0
 20
0.0
 30
0.0
  9
$USERI1
 70
     0
  9
$USERI2
 70
     0
  9
$USERI3
 70
     0
  9
$USERI4
 70
     0
  9
$USERI5
 70
     0
  9
$USERR1
 40
0.0
  9
$USERR2
 40
0.0
  9
$USERR3
 40
0.0
  9
$USERR4
 40
0.0
  9
$USERR5
 40
0.0
  9
$WORLDVIEW
 70
     1
  9
$SHADEDGE
 70
     3
  9
$SHADEDIF
 70
    70
  9
$TILEMODE
 70
     1
  9
$MAXACTVP
 70
    64
  9
$PINSBASE
 10
0.0
 20
0.0
 30
0.0
  9
$PLIMCHECK
 70
     0
  9
$PEXTMIN
 10
1.000000000000000E+20
 20
1.000000000000000E+20
 30
1.000000000000000E+20
  9
$PEXTMAX
 10
-1.000000000000000E+20
 20
-1.000000000000000E+20
 30
-1.000000000000000E+20
  9
$PLIMMIN
 10
0.0
 20
0.0
  9
$PLIMMAX
 10
12.0
 20
9.0
  9
$UNITMODE
 70
     0
  9
$VISRETAIN
 70
     1
  9
$PLINEGEN
 70
     0
  9
$PSLTSCALE
 70
     1
  9
$TREEDEPTH
 70
  3020
  9
$CMLSTYLE
  2
Standard
  9
$CMLJUST
 70
     0
  9
$CMLSCALE
 40
1.0
  9
$PROXYGRAPHICS
 70
     1
  9
$MEASUREMENT
 70
     0
  9
$CELWEIGHT
370
    -1
  9
$ENDCAPS
280
     0
  9
$JOINSTYLE
280
     0
  9
$LWDISPLAY
290
     0
  9
$INSUNITS
 70
     4
  9
$HYPERLINKBASE
  1

  9
$STYLESHEET
  1

  9
$XEDIT
290
     1
  9
$CEPSNTYPE
380
     0
  9
$PSTYLEMODE
290
     1
  9
$FINGERPRINTGUID
  2
{785EBF8D-4FBD-4214-9CEB-A618549FFD3A}
  9
$VERSIONGUID
  2
{FAEB1C32-E019-11D5-929B-00C0DF256EC4}
  9
$EXTNAMES
290
     1
  9
$PSVPSCALE
 40
0.0
  9
$OLESTARTUP
290
     0
  9
$SORTENTS
280
   127
  9
$INDEXCTL
280
     0
  9
$HIDETEXT
280
     1
  9
$XCLIPFRAME
290
     0
  9
$HALOGAP
280
     0
  9
$OBSCOLOR
 70
   257
  9
$OBSLTYPE
280
     0
  9
$INTERSECTIONDISPLAY
280
     0
  9
$INTERSECTIONCOLOR
 70
   257
  9
$DIMASSOC
280
     2
  9
$PROJECTNAME
  1

  0
ENDSEC
  0
SECTION
  2
CLASSES
  0
CLASS
  1
ACDBDICTIONARYWDFLT
  2
AcDbDictionaryWithDefault
  3
ObjectDBX Classes
 90
        0
 91
        4
280
     0
281
     0
  0
CLASS
  1
VISUALSTYLE
  2
AcDbVisualStyle
  3
ObjectDBX Classes
 90
     4095
 91
        4
280
     0
281
     0
  0
CLASS
  1
MATERIAL
  2
AcDbMaterial
  3
ObjectDBX Classes
 90
     1153
 91
        4
280
     0
281
     0
  0
CLASS
  1
SCALE
  2
AcDbScale
  3
ObjectDBX Classes
 90
     1153
 91
        4
280
     0
281
     0
  0
CLASS
  1
SUN
  2
AcDbSun
  3
SCENEOE
 90
     1153
 91
        4
280
     0
281
     0
  0
CLASS
  1
DICTIONARYVAR
  2
AcDbDictionaryVar
  3
ObjectDBX Classes
 90
        0
 91
        4
280
     0
281
     0
  0
ENDSEC
  0
SECTION
  2
TABLES
  0
TABLE
  2
VPORT
  5
8
330
0
100
AcDbSymbolTable
 70
     1
  0
VPORT
  5
29
330
8
100
AcDbSymbolTableRecord
100
AcDbViewportTableRecord
  2
*Active
 70
     0
 10
0.0
 20
0.0
 11
1.0
 21
1.0
 12
-36.41903803762523
 22
6.489209943408852
 13
0.0
 23
0.0
 14
0.5
 24
0.5
 15
0.5
 25
0.5
 16
0.0
 26
0.0
 36
1.0
 17
0.0
 27
0.0
 37
0.0
 40
131.5919646000009
 41
2.717678074699082
 42
50.0
 43
0.0
 44
0.0
 50
0.0
 51
0.0
 71
     0
 72
   100
 73
     1
 74
     3
 75
     0
 76
     0
 77
     0
 78
     0
281
     0
 65
     1
110
0.0
120
0.0
130
0.0
111
1.0
121
0.0
131
0.0
112
0.0
122
1.0
132
0.0
 79
     0
146
0.0
  0
ENDTAB
  0
TABLE
  2
LTYPE
  5
5
330
0
100
AcDbSymbolTable
 70
     1
  0
LTYPE
  5
14
330
5
100
AcDbSymbolTableRecord
100
AcDbLinetypeTableRecord
  2
ByBlock
 70
     0
  3

 72
    65
 73
     0
 40
0.0
  0
LTYPE
  5
15
330
5
100
AcDbSymbolTableRecord
100
AcDbLinetypeTableRecord
  2
ByLayer
 70
     0
  3

 72
    65
 73
     0
 40
0.0
  0
LTYPE
  5
16
330
5
100
AcDbSymbolTableRecord
100
AcDbLinetypeTableRecord
  2
Continuous
 70
     0
  3
Solid line
 72
    65
 73
     0
 40
0.0
  0
ENDTAB
  0
TABLE
  2
LAYER
  5
2
330
0
100
AcDbSymbolTable
 70
     2
  0
LAYER
  5
10
330
2
100
AcDbSymbolTableRecord
100
AcDbLayerTableRecord
  2
0
 70
     0
 62
     7
  6
Continuous
370
    -3
390
F
  0
LAYER
  5
62
330
2
100
AcDbSymbolTableRecord
100
AcDbLayerTableRecord
  2
预设值
 70
     0
 62
   251
420
  6908265
  6
Continuous
370
    -3
390
F
  0
ENDTAB
  0
TABLE
  2
STYLE
  5
3
330
0
100
AcDbSymbolTable
 70
     1
  0
STYLE
  5
11
330
3
100
AcDbSymbolTableRecord
100
AcDbTextStyleTableRecord
  2
Standard
 70
     0
 40
0.0
 41
1.0
 50
0.0
 71
     0
 42
0.2
  3
txt
  4

  0
ENDTAB
  0
TABLE
  2
VIEW
  5
6
330
0
100
AcDbSymbolTable
 70
     0
  0
ENDTAB
  0
TABLE
  2
UCS
  5
7
330
0
100
AcDbSymbolTable
 70
     0
  0
ENDTAB
  0
TABLE
  2
APPID
  5
9
330
0
100
AcDbSymbolTable
 70
     1
  0
APPID
  5
12
330
9
100
AcDbSymbolTableRecord
100
AcDbRegAppTableRecord
  2
ACAD
 70
     0
  0
ENDTAB
  0
TABLE
  2
DIMSTYLE
  5
A
330
0
100
AcDbSymbolTable
 70
     1
100
AcDbDimStyleTable
  0
DIMSTYLE
105
27
330
A
100
AcDbSymbolTableRecord
100
AcDbDimStyleTableRecord
  2
Standard
 70
     0
178
     0
340
11
  0
ENDTAB
  0
TABLE
  2
BLOCK_RECORD
  5
1
330
0
100
AcDbSymbolTable
 70
     1
  0
BLOCK_RECORD
  5
1F
330
1
100
AcDbSymbolTableRecord
100
AcDbBlockTableRecord
  2
*Model_Space
340
22
  0
BLOCK_RECORD
  5
1B
330
1
100
AcDbSymbolTableRecord
100
AcDbBlockTableRecord
  2
*Paper_Space
340
1E
  0
BLOCK_RECORD
  5
23
330
1
100
AcDbSymbolTableRecord
100
AcDbBlockTableRecord
  2
*Paper_Space0
340
26
  0
ENDTAB
  0
ENDSEC
  0
SECTION
  2
BLOCKS
  0
BLOCK
  5
20
330
1F
100
AcDbEntity
  8
0
100
AcDbBlockBegin
  2
*Model_Space
 70
     0
 10
0.0
 20
0.0
 30
0.0
  3
*Model_Space
  1
*Model_Space
  0
ENDBLK
  5
21
330
1F
100
AcDbEntity
  8
0
100
AcDbBlockEnd
  0
BLOCK
  5
1C
330
1B
100
AcDbEntity
 67
     1
  8
0
100
AcDbBlockBegin
  2
*Paper_Space
 70
     0
 10
0.0
 20
0.0
 30
0.0
  3
*Paper_Space
  1
*Paper_Space
  0
ENDBLK
  5
1D
330
1B
100
AcDbEntity
 67
     1
  8
0
100
AcDbBlockEnd
  0
BLOCK
  5
24
330
23
100
AcDbEntity
  8
0
100
AcDbBlockBegin
  2
*Paper_Space0
 70
     0
 10
0.0
 20
0.0
 30
0.0
  3
*Paper_Space0
  1
*Paper_Space0
  0
ENDBLK
  5
25
330
23
100
AcDbEntity
  8
0
100
AcDbBlockEnd
  0
ENDSEC
  0
SECTION
  2
ENTITIES
  0
POLYLINE
  5
63
330
1F
100
AcDbEntity
  8
预设值
100
AcDb2dPolyline
 66
     1
 10
0.0
 20
0.0
 30
0.0
  0
VERTEX
  5
64
330
63
100
AcDbEntity
  8
预设值
100
AcDbVertex
100
AcDb2dVertex
 10
115.3371369623749
 20
49.49607494340923
 30
0.0
  0
VERTEX
  5
65
330
63
100
AcDbEntity
  8
预设值
100
AcDbVertex
100
AcDb2dVertex
 10
102.3371369623749
 20
49.49607494340921
 30
0.0
 42
-0.4142135623730901
  0
VERTEX
  5
66
330
63
100
AcDbEntity
  8
预设值
100
AcDbVertex
100
AcDb2dVertex
 10
101.8371369623749
 20
49.99607494340923
 30
0.0
  0
VERTEX
  5
67
330
63
100
AcDbEntity
  8
预设值
100
AcDbVertex
100
AcDb2dVertex
 10
101.8371369623749
 20
62.99507494340922
 30
0.0
 42
-0.414213562373095
  0
VERTEX
  5
68
330
63
100
AcDbEntity
  8
预设值
100
AcDbVertex
100
AcDb2dVertex
 10
102.3371369623749
 20
63.49507494340922
 30
0.0
  0
VERTEX
  5
69
330
63
100
AcDbEntity
  8
预设值
100
AcDbVertex
100
AcDb2dVertex
 10
115.3371369623749
 20
63.49507494340922
 30
0.0
 42
-0.414213562373095
  0
VERTEX
  5
6A
330
63
100
AcDbEntity
  8
预设值
100
AcDbVertex
100
AcDb2dVertex
 10
115.8371369623749
 20
62.99507494340922
 30
0.0
  0
VERTEX
  5
6B
330
63
100
AcDbEntity
  8
预设值
100
AcDbVertex
100
AcDb2dVertex
 10
115.8371369623749
 20
49.99607494340923
 30
0.0
 42
-0.414213562373095
  0
VERTEX
  5
6C
330
63
100
AcDbEntity
  8
预设值
100
AcDbVertex
100
AcDb2dVertex
 10
115.3371369623749
 20
49.49607494340923
 30
0.0
  0
SEQEND
  5
6D
330
63
100
AcDbEntity
  8
预设值
  0
POLYLINE
  5
6E
330
1F
100
AcDbEntity
  8
预设值
100
AcDb2dPolyline
 66
     1
 10
0.0
 20
0.0
 30
0.0
  0
VERTEX
  5
6F
330
6E
100
AcDbEntity
  8
预设值
100
AcDbVertex
100
AcDb2dVertex
 10
-150.0751630376252
 20
25.68337494340922
 30
0.0
  0
VERTEX
  5
70
330
6E
100
AcDbEntity
  8
预设值
100
AcDbVertex
100
AcDb2dVertex
 10
-137.0758630376251
 20
25.68337494340922
 30
0.0
 42
0.4142135623730965
  0
VERTEX
  5
71
330
6E
100
AcDbEntity
  8
预设值
100
AcDbVertex
100
AcDb2dVertex
 10
-136.5758630376251
 20
26.18337494340922
 30
0.0
  0
VERTEX
  5
72
330
6E
100
AcDbEntity
  8
预设值
100
AcDbVertex
100
AcDb2dVertex
 10
-136.5758630376251
 20
39.18267494340922
 30
0.0
 42
0.414213562373095
  0
VERTEX
  5
73
330
6E
100
AcDbEntity
  8
预设值
100
AcDbVertex
100
AcDb2dVertex
 10
-137.0758630376251
 20
39.68267494340922
 30
0.0
  0
VERTEX
  5
74
330
6E
100
AcDbEntity
  8
预设值
100
AcDbVertex
100
AcDb2dVertex
 10
-150.0751630376252
 20
39.68267494340922
 30
0.0
 42
0.414213562373095
  0
VERTEX
  5
75
330
6E
100
AcDbEntity
  8
预设值
100
AcDbVertex
100
AcDb2dVertex
 10
-150.5751630376252
 20
39.18267494340922
 30
0.0
  0
VERTEX
  5
76
330
6E
100
AcDbEntity
  8
预设值
100
AcDbVertex
100
AcDb2dVertex
 10
-150.5751630376252
 20
26.18337494340922
 30
0.0
 42
0.4142135623730915
  0
VERTEX
  5
77
330
6E
100
AcDbEntity
  8
预设值
100
AcDbVertex
100
AcDb2dVertex
 10
-150.0751630376252
 20
25.68337494340922
 30
0.0
  0
SEQEND
  5
78
330
6E
100
AcDbEntity
  8
预设值
  0
POLYLINE
  5
79
330
1F
100
AcDbEntity
  8
预设值
100
AcDb2dPolyline
 66
     1
 10
0.0
 20
0.0
 30
0.0
  0
VERTEX
  5
7A
330
79
100
AcDbEntity
  8
预设值
100
AcDbVertex
100
AcDb2dVertex
 10
-16.72486303762525
 20
25.68337494340922
 30
0.0
  0
VERTEX
  5
7B
330
79
100
AcDbEntity
  8
预设值
100
AcDbVertex
100
AcDb2dVertex
 10
-3.725863037625231
 20
25.68337494340922
 30
0.0
 42
0.4142135623730928
  0
VERTEX
  5
7C
330
79
100
AcDbEntity
  8
预设值
100
AcDbVertex
100
AcDb2dVertex
 10
-3.225863037625274
 20
26.18337494340918
 30
0.0
  0
VERTEX
  5
7D
330
79
100
AcDbEntity
  8
预设值
100
AcDbVertex
100
AcDb2dVertex
 10
-3.225863037625231
 20
39.18267494340927
 30
0.0
 42
0.4142135623730594
  0
VERTEX
  5
7E
330
79
100
AcDbEntity
  8
预设值
100
AcDbVertex
100
AcDb2dVertex
 10
-3.725863037625231
 20
39.68267494340921
 30
0.0
  0
VERTEX
  5
7F
330
79
100
AcDbEntity
  8
预设值
100
AcDbVertex
100
AcDb2dVertex
 10
-16.72486303762525
 20
39.68267494340922
 30
0.0
 42
0.4142135623730915
  0
VERTEX
  5
80
330
79
100
AcDbEntity
  8
预设值
100
AcDbVertex
100
AcDb2dVertex
 10
-17.22486303762525
 20
39.18267494340922
 30
0.0
  0
VERTEX
  5
81
330
79
100
AcDbEntity
  8
预设值
100
AcDbVertex
100
AcDb2dVertex
 10
-17.22486303762525
 20
26.18337494340922
 30
0.0
 42
0.4142135623730929
  0
VERTEX
  5
82
330
79
100
AcDbEntity
  8
预设值
100
AcDbVertex
100
AcDb2dVertex
 10
-16.72486303762525
 20
25.68337494340922
 30
0.0
  0
SEQEND
  5
83
330
79
100
AcDbEntity
  8
预设值
  0
POLYLINE
  5
84
330
1F
100
AcDbEntity
  8
预设值
100
AcDb2dPolyline
 66
     1
 10
0.0
 20
0.0
 30
0.0
  0
VERTEX
  5
85
330
84
100
AcDbEntity
  8
预设值
100
AcDbVertex
100
AcDb2dVertex
 10
-137.0758630376251
 20
49.49607494340923
 30
0.0
  0
VERTEX
  5
86
330
84
100
AcDbEntity
  8
预设值
100
AcDbVertex
100
AcDb2dVertex
 10
-150.0751630376252
 20
49.49607494340923
 30
0.0
 42
-0.414213562373095
  0
VERTEX
  5
87
330
84
100
AcDbEntity
  8
预设值
100
AcDbVertex
100
AcDb2dVertex
 10
-150.5751630376252
 20
49.99607494340923
 30
0.0
  0
VERTEX
  5
88
330
84
100
AcDbEntity
  8
预设值
100
AcDbVertex
100
AcDb2dVertex
 10
-150.5751630376252
 20
62.99507494340922
 30
0.0
 42
-0.414213562373095
  0
VERTEX
  5
89
330
84
100
AcDbEntity
  8
预设值
100
AcDbVertex
100
AcDb2dVertex
 10
-150.0751630376252
 20
63.49507494340922
 30
0.0
  0
VERTEX
  5
8A
330
84
100
AcDbEntity
  8
预设值
100
AcDbVertex
100
AcDb2dVertex
 10
-137.0758630376251
 20
63.49507494340922
 30
0.0
 42
-0.414213562373095
  0
VERTEX
  5
8B
330
84
100
AcDbEntity
  8
预设值
100
AcDbVertex
100
AcDb2dVertex
 10
-136.5758630376251
 20
62.99507494340922
 30
0.0
  0
VERTEX
  5
8C
330
84
100
AcDbEntity
  8
预设值
100
AcDbVertex
100
AcDb2dVertex
 10
-136.5758630376251
 20
49.99607494340923
 30
0.0
 42
-0.414213562373095
  0
VERTEX
  5
8D
330
84
100
AcDbEntity
  8
预设值
100
AcDbVertex
100
AcDb2dVertex
 10
-137.0758630376251
 20
49.49607494340923
 30
0.0
  0
SEQEND
  5
8E
330
84
100
AcDbEntity
  8
预设值
  0
POLYLINE
  5
8F
330
1F
100
AcDbEntity
  8
预设值
100
AcDb2dPolyline
 66
     1
 10
0.0
 20
0.0
 30
0.0
  0
VERTEX
  5
90
330
8F
100
AcDbEntity
  8
预设值
100
AcDbVertex
100
AcDb2dVertex
 10
15.32413696237484
 20
25.68337494340922
 30
0.0
  0
VERTEX
  5
91
330
8F
100
AcDbEntity
  8
预设值
100
AcDbVertex
100
AcDb2dVertex
 10
2.325136962374813
 20
25.68337494340922
 30
0.0
 42
-0.4142135623730941
  0
VERTEX
  5
92
330
8F
100
AcDbEntity
  8
预设值
100
AcDbVertex
100
AcDb2dVertex
 10
1.825136962374813
 20
26.18337494340922
 30
0.0
  0
VERTEX
  5
93
330
8F
100
AcDbEntity
  8
预设值
100
AcDbVertex
100
AcDb2dVertex
 10
1.825136962374813
 20
39.18267494340922
 30
0.0
 42
-0.4142135623730974
  0
VERTEX
  5
94
330
8F
100
AcDbEntity
  8
预设值
100
AcDbVertex
100
AcDb2dVertex
 10
2.325136962374813
 20
39.68267494340922
 30
0.0
  0
VERTEX
  5
95
330
8F
100
AcDbEntity
  8
预设值
100
AcDbVertex
100
AcDb2dVertex
 10
15.32413696237484
 20
39.68267494340922
 30
0.0
 42
-0.414213562373092
  0
VERTEX
  5
96
330
8F
100
AcDbEntity
  8
预设值
100
AcDbVertex
100
AcDb2dVertex
 10
15.82413696237484
 20
39.18267494340922
 30
0.0
  0
VERTEX
  5
97
330
8F
100
AcDbEntity
  8
预设值
100
AcDbVertex
100
AcDb2dVertex
 10
15.82413696237484
 20
26.18337494340922
 30
0.0
 42
-0.4142135623730944
  0
VERTEX
  5
98
330
8F
100
AcDbEntity
  8
预设值
100
AcDbVertex
100
AcDb2dVertex
 10
15.32413696237484
 20
25.68337494340922
 30
0.0
  0
SEQEND
  5
99
330
8F
100
AcDbEntity
  8
预设值
  0
POLYLINE
  5
9A
330
1F
100
AcDbEntity
  8
预设值
100
AcDb2dPolyline
 66
     1
 10
0.0
 20
0.0
 30
0.0
  0
VERTEX
  5
9B
330
9A
100
AcDbEntity
  8
预设值
100
AcDbVertex
100
AcDb2dVertex
 10
-98.97586303762523
 20
49.49607494340923
 30
0.0
  0
VERTEX
  5
9C
330
9A
100
AcDbEntity
  8
预设值
100
AcDbVertex
100
AcDb2dVertex
 10
-111.9765630376252
 20
49.49607494340923
 30
0.0
 42
-0.414213562373095
  0
VERTEX
  5
9D
330
9A
100
AcDbEntity
  8
预设值
100
AcDbVertex
100
AcDb2dVertex
 10
-112.4765630376252
 20
49.99607494340923
 30
0.0
  0
VERTEX
  5
9E
330
9A
100
AcDbEntity
  8
预设值
100
AcDbVertex
100
AcDb2dVertex
 10
-112.4765630376252
 20
62.99507494340922
 30
0.0
 42
-0.414213562373095
  0
VERTEX
  5
9F
330
9A
100
AcDbEntity
  8
预设值
100
AcDbVertex
100
AcDb2dVertex
 10
-111.9765630376252
 20
63.49507494340922
 30
0.0
  0
VERTEX
  5
A0
330
9A
100
AcDbEntity
  8
预设值
100
AcDbVertex
100
AcDb2dVertex
 10
-98.97586303762523
 20
63.49507494340922
 30
0.0
 42
-0.414213562373095
  0
VERTEX
  5
A1
330
9A
100
AcDbEntity
  8
预设值
100
AcDbVertex
100
AcDb2dVertex
 10
-98.47586303762523
 20
62.99507494340922
 30
0.0
  0
VERTEX
  5
A2
330
9A
100
AcDbEntity
  8
预设值
100
AcDbVertex
100
AcDb2dVertex
 10
-98.47586303762523
 20
49.99607494340923
 30
0.0
 42
-0.414213562373095
  0
VERTEX
  5
A3
330
9A
100
AcDbEntity
  8
预设值
100
AcDbVertex
100
AcDb2dVertex
 10
-98.97586303762523
 20
49.49607494340923
 30
0.0
  0
SEQEND
  5
A4
330
9A
100
AcDbEntity
  8
预设值
  0
POLYLINE
  5
A5
330
1F
100
AcDbEntity
  8
预设值
100
AcDb2dPolyline
 66
     1
 10
0.0
 20
0.0
 30
0.0
  0
VERTEX
  5
A6
330
A5
100
AcDbEntity
  8
预设值
100
AcDbVertex
100
AcDb2dVertex
 10
-94.01286303762515
 20
-31.66662505659076
 30
0.0
  0
VERTEX
  5
A7
330
A5
100
AcDbEntity
  8
预设值
100
AcDbVertex
100
AcDb2dVertex
 10
-107.0128630376253
 20
-31.66662505659078
 30
0.0
 42
-0.4142135623730489
  0
VERTEX
  5
A8
330
A5
100
AcDbEntity
  8
预设值
100
AcDbVertex
100
AcDb2dVertex
 10
-107.7128630376252
 20
-30.96662505659076
 30
0.0
  0
VERTEX
  5
A9
330
A5
100
AcDbEntity
  8
预设值
100
AcDbVertex
100
AcDb2dVertex
 10
-107.7128630376252
 20
-17.96732505659078
 30
0.0
 42
-0.4142135623731174
  0
VERTEX
  5
AA
330
A5
100
AcDbEntity
  8
预设值
100
AcDbVertex
100
AcDb2dVertex
 10
-107.0128630376253
 20
-17.26732505659079
 30
0.0
  0
VERTEX
  5
AB
330
A5
100
AcDbEntity
  8
预设值
100
AcDbVertex
100
AcDb2dVertex
 10
-94.01286303762515
 20
-17.26732505659078
 30
0.0
 42
-0.4142135623730979
  0
VERTEX
  5
AC
330
A5
100
AcDbEntity
  8
预设值
100
AcDbVertex
100
AcDb2dVertex
 10
-93.31286303762516
 20
-17.96732505659077
 30
0.0
  0
VERTEX
  5
AD
330
A5
100
AcDbEntity
  8
预设值
100
AcDbVertex
100
AcDb2dVertex
 10
-93.31286303762522
 20
-30.96662505659079
 30
0.0
 42
-0.4142135623731072
  0
VERTEX
  5
AE
330
A5
100
AcDbEntity
  8
预设值
100
AcDbVertex
100
AcDb2dVertex
 10
-94.01286303762515
 20
-31.66662505659076
 30
0.0
  0
SEQEND
  5
AF
330
A5
100
AcDbEntity
  8
预设值
  0
POLYLINE
  5
B0
330
1F
100
AcDbEntity
  8
预设值
100
AcDb2dPolyline
 66
     1
 10
0.0
 20
0.0
 30
0.0
  0
VERTEX
  5
B1
330
B0
100
AcDbEntity
  8
预设值
100
AcDbVertex
100
AcDb2dVertex
 10
-35.77486303762521
 20
25.68337494340922
 30
0.0
  0
VERTEX
  5
B2
330
B0
100
AcDbEntity
  8
预设值
100
AcDbVertex
100
AcDb2dVertex
 10
-22.77586303762519
 20
25.68337494340922
 30
0.0
 42
0.4142135623730929
  0
VERTEX
  5
B3
330
B0
100
AcDbEntity
  8
预设值
100
AcDbVertex
100
AcDb2dVertex
 10
-22.27586303762519
 20
26.18337494340922
 30
0.0
  0
VERTEX
  5
B4
330
B0
100
AcDbEntity
  8
预设值
100
AcDbVertex
100
AcDb2dVertex
 10
-22.27586303762519
 20
39.18267494340922
 30
0.0
 42
0.4142135623730965
  0
VERTEX
  5
B5
330
B0
100
AcDbEntity
  8
预设值
100
AcDbVertex
100
AcDb2dVertex
 10
-22.77586303762519
 20
39.68267494340922
 30
0.0
  0
VERTEX
  5
B6
330
B0
100
AcDbEntity
  8
预设值
100
AcDbVertex
100
AcDb2dVertex
 10
-35.77486303762521
 20
39.68267494340922
 30
0.0
 42
0.414213562373095
  0
VERTEX
  5
B7
330
B0
100
AcDbEntity
  8
预设值
100
AcDbVertex
100
AcDb2dVertex
 10
-36.27486303762521
 20
39.18267494340922
 30
0.0
  0
VERTEX
  5
B8
330
B0
100
AcDbEntity
  8
预设值
100
AcDbVertex
100
AcDb2dVertex
 10
-36.27486303762521
 20
26.18337494340922
 30
0.0
 42
0.4142135623730915
  0
VERTEX
  5
B9
330
B0
100
AcDbEntity
  8
预设值
100
AcDbVertex
100
AcDb2dVertex
 10
-35.77486303762521
 20
25.68337494340922
 30
0.0
  0
SEQEND
  5
BA
330
B0
100
AcDbEntity
  8
预设值
  0
POLYLINE
  5
BB
330
1F
100
AcDbEntity
  8
预设值
100
AcDb2dPolyline
 66
     1
 10
0.0
 20
0.0
 30
0.0
  0
VERTEX
  5
BC
330
BB
100
AcDbEntity
  8
预设值
100
AcDbVertex
100
AcDb2dVertex
 10
-188.1751630376252
 20
25.68337494340922
 30
0.0
  0
VERTEX
  5
BD
330
BB
100
AcDbEntity
  8
预设值
100
AcDbVertex
100
AcDb2dVertex
 10
-175.1758630376253
 20
25.68337494340922
 30
0.0
 42
0.4142135623730965
  0
VERTEX
  5
BE
330
BB
100
AcDbEntity
  8
预设值
100
AcDbVertex
100
AcDb2dVertex
 10
-174.6758630376253
 20
26.18337494340922
 30
0.0
  0
VERTEX
  5
BF
330
BB
100
AcDbEntity
  8
预设值
100
AcDbVertex
100
AcDb2dVertex
 10
-174.6758630376253
 20
39.18267494340922
 30
0.0
 42
0.414213562373095
  0
VERTEX
  5
C0
330
BB
100
AcDbEntity
  8
预设值
100
AcDbVertex
100
AcDb2dVertex
 10
-175.1758630376253
 20
39.68267494340922
 30
0.0
  0
VERTEX
  5
C1
330
BB
100
AcDbEntity
  8
预设值
100
AcDbVertex
100
AcDb2dVertex
 10
-188.1751630376252
 20
39.68267494340922
 30
0.0
 42
0.414213562373095
  0
VERTEX
  5
C2
330
BB
100
AcDbEntity
  8
预设值
100
AcDbVertex
100
AcDb2dVertex
 10
-188.6751630376252
 20
39.18267494340922
 30
0.0
  0
VERTEX
  5
C3
330
BB
100
AcDbEntity
  8
预设值
100
AcDbVertex
100
AcDb2dVertex
 10
-188.6751630376252
 20
26.18337494340922
 30
0.0
 42
0.4142135623730915
  0
VERTEX
  5
C4
330
BB
100
AcDbEntity
  8
预设值
100
AcDbVertex
100
AcDb2dVertex
 10
-188.1751630376252
 20
25.68337494340922
 30
0.0
  0
SEQEND
  5
C5
330
BB
100
AcDbEntity
  8
预设值
  0
POLYLINE
  5
C6
330
1F
100
AcDbEntity
  8
预设值
100
AcDb2dPolyline
 66
     1
 10
0.0
 20
0.0
 30
0.0
  0
VERTEX
  5
C7
330
C6
100
AcDbEntity
  8
预设值
100
AcDbVertex
100
AcDb2dVertex
 10
115.3371369623749
 20
-31.46662505659078
 30
0.0
  0
VERTEX
  5
C8
330
C6
100
AcDbEntity
  8
预设值
100
AcDbVertex
100
AcDb2dVertex
 10
102.3371369623749
 20
-31.46662505659078
 30
0.0
 42
-0.4142135623730965
  0
VERTEX
  5
C9
330
C6
100
AcDbEntity
  8
预设值
100
AcDbVertex
100
AcDb2dVertex
 10
101.8371369623749
 20
-30.96662505659078
 30
0.0
  0
VERTEX
  5
CA
330
C6
100
AcDbEntity
  8
预设值
100
AcDbVertex
100
AcDb2dVertex
 10
101.8371369623749
 20
-17.96732505659077
 30
0.0
 42
-0.4142135623730915
  0
VERTEX
  5
CB
330
C6
100
AcDbEntity
  8
预设值
100
AcDbVertex
100
AcDb2dVertex
 10
102.3371369623749
 20
-17.46732505659077
 30
0.0
  0
VERTEX
  5
CC
330
C6
100
AcDbEntity
  8
预设值
100
AcDbVertex
100
AcDb2dVertex
 10
115.3371369623749
 20
-17.46732505659078
 30
0.0
 42
-0.4142135623730965
  0
VERTEX
  5
CD
330
C6
100
AcDbEntity
  8
预设值
100
AcDbVertex
100
AcDb2dVertex
 10
115.8371369623749
 20
-17.96732505659078
 30
0.0
  0
VERTEX
  5
CE
330
C6
100
AcDbEntity
  8
预设值
100
AcDbVertex
100
AcDb2dVertex
 10
115.8371369623749
 20
-30.96662505659077
 30
0.0
 42
-0.4142135623730915
  0
VERTEX
  5
CF
330
C6
100
AcDbEntity
  8
预设值
100
AcDbVertex
100
AcDb2dVertex
 10
115.3371369623749
 20
-31.46662505659077
 30
0.0
  0
SEQEND
  5
D0
330
C6
100
AcDbEntity
  8
预设值
  0
POLYLINE
  5
D1
330
1F
100
AcDbEntity
  8
预设值
100
AcDb2dPolyline
 66
     1
 10
0.0
 20
0.0
 30
0.0
  0
VERTEX
  5
D2
330
D1
100
AcDbEntity
  8
预设值
100
AcDbVertex
100
AcDb2dVertex
 10
-70.40086303762519
 20
49.49607494340923
 30
0.0
  0
VERTEX
  5
D3
330
D1
100
AcDbEntity
  8
预设值
100
AcDbVertex
100
AcDb2dVertex
 10
-83.39986303762521
 20
49.49607494340923
 30
0.0
 42
-0.414213562373095
  0
VERTEX
  5
D4
330
D1
100
AcDbEntity
  8
预设值
100
AcDbVertex
100
AcDb2dVertex
 10
-83.89986303762521
 20
49.99607494340923
 30
0.0
  0
VERTEX
  5
D5
330
D1
100
AcDbEntity
  8
预设值
100
AcDbVertex
100
AcDb2dVertex
 10
-83.89986303762521
 20
62.99507494340922
 30
0.0
 42
-0.414213562373095
  0
VERTEX
  5
D6
330
D1
100
AcDbEntity
  8
预设值
100
AcDbVertex
100
AcDb2dVertex
 10
-83.39986303762521
 20
63.49507494340922
 30
0.0
  0
VERTEX
  5
D7
330
D1
100
AcDbEntity
  8
预设值
100
AcDbVertex
100
AcDb2dVertex
 10
-70.40086303762519
 20
63.49507494340922
 30
0.0
 42
-0.4142135623730813
  0
VERTEX
  5
D8
330
D1
100
AcDbEntity
  8
预设值
100
AcDbVertex
100
AcDb2dVertex
 10
-69.90086303762521
 20
62.99507494340924
 30
0.0
  0
VERTEX
  5
D9
330
D1
100
AcDbEntity
  8
预设值
100
AcDbVertex
100
AcDb2dVertex
 10
-69.90086303762519
 20
49.99607494340923
 30
0.0
 42
-0.414213562373095
  0
VERTEX
  5
DA
330
D1
100
AcDbEntity
  8
预设值
100
AcDbVertex
100
AcDb2dVertex
 10
-70.40086303762519
 20
49.49607494340923
 30
0.0
  0
SEQEND
  5
DB
330
D1
100
AcDbEntity
  8
预设值
  0
POLYLINE
  5
DC
330
1F
100
AcDbEntity
  8
预设值
100
AcDb2dPolyline
 66
     1
 10
0.0
 20
0.0
 30
0.0
  0
VERTEX
  5
DD
330
DC
100
AcDbEntity
  8
预设值
100
AcDbVertex
100
AcDb2dVertex
 10
-51.35086303762523
 20
49.49607494340923
 30
0.0
  0
VERTEX
  5
DE
330
DC
100
AcDbEntity
  8
预设值
100
AcDbVertex
100
AcDb2dVertex
 10
-64.34986303762525
 20
49.49607494340923
 30
0.0
 42
-0.414213562373095
  0
VERTEX
  5
DF
330
DC
100
AcDbEntity
  8
预设值
100
AcDbVertex
100
AcDb2dVertex
 10
-64.84986303762525
 20
49.99607494340923
 30
0.0
  0
VERTEX
  5
E0
330
DC
100
AcDbEntity
  8
预设值
100
AcDbVertex
100
AcDb2dVertex
 10
-64.84986303762525
 20
62.99507494340922
 30
0.0
 42
-0.414213562373095
  0
VERTEX
  5
E1
330
DC
100
AcDbEntity
  8
预设值
100
AcDbVertex
100
AcDb2dVertex
 10
-64.34986303762525
 20
63.49507494340922
 30
0.0
  0
VERTEX
  5
E2
330
DC
100
AcDbEntity
  8
预设值
100
AcDbVertex
100
AcDb2dVertex
 10
-51.35086303762523
 20
63.49507494340922
 30
0.0
 42
-0.4142135623730872
  0
VERTEX
  5
E3
330
DC
100
AcDbEntity
  8
预设值
100
AcDbVertex
100
AcDb2dVertex
 10
-50.85086303762529
 20
62.99507494340926
 30
0.0
  0
VERTEX
  5
E4
330
DC
100
AcDbEntity
  8
预设值
100
AcDbVertex
100
AcDb2dVertex
 10
-50.85086303762523
 20
49.99607494340918
 30
0.0
 42
-0.4142135623730806
  0
VERTEX
  5
E5
330
DC
100
AcDbEntity
  8
预设值
100
AcDbVertex
100
AcDb2dVertex
 10
-51.35086303762523
 20
49.49607494340921
 30
0.0
  0
SEQEND
  5
E6
330
DC
100
AcDbEntity
  8
预设值
  0
POLYLINE
  5
E7
330
1F
100
AcDbEntity
  8
预设值
100
AcDb2dPolyline
 66
     1
 10
0.0
 20
0.0
 30
0.0
  0
VERTEX
  5
E8
330
E7
100
AcDbEntity
  8
预设值
100
AcDbVertex
100
AcDb2dVertex
 10
-32.30086303762516
 20
49.49607494340923
 30
0.0
  0
VERTEX
  5
E9
330
E7
100
AcDbEntity
  8
预设值
100
AcDbVertex
100
AcDb2dVertex
 10
-45.29986303762519
 20
49.49607494340923
 30
0.0
 42
-0.414213562373095
  0
VERTEX
  5
EA
330
E7
100
AcDbEntity
  8
预设值
100
AcDbVertex
100
AcDb2dVertex
 10
-45.79986303762519
 20
49.99607494340923
 30
0.0
  0
VERTEX
  5
EB
330
E7
100
AcDbEntity
  8
预设值
100
AcDbVertex
100
AcDb2dVertex
 10
-45.79986303762519
 20
62.99507494340924
 30
0.0
 42
-0.4142135623731449
  0
VERTEX
  5
EC
330
E7
100
AcDbEntity
  8
预设值
100
AcDbVertex
100
AcDb2dVertex
 10
-45.2998630376253
 20
63.49507494340921
 30
0.0
  0
VERTEX
  5
ED
330
E7
100
AcDbEntity
  8
预设值
100
AcDbVertex
100
AcDb2dVertex
 10
-32.30086303762516
 20
63.49507494340922
 30
0.0
 42
-0.4142135623730885
  0
VERTEX
  5
EE
330
E7
100
AcDbEntity
  8
预设值
100
AcDbVertex
100
AcDb2dVertex
 10
-31.80086303762519
 20
62.99507494340924
 30
0.0
  0
VERTEX
  5
EF
330
E7
100
AcDbEntity
  8
预设值
100
AcDbVertex
100
AcDb2dVertex
 10
-31.80086303762516
 20
49.99607494340923
 30
0.0
 42
-0.4142135623730965
  0
VERTEX
  5
F0
330
E7
100
AcDbEntity
  8
预设值
100
AcDbVertex
100
AcDb2dVertex
 10
-32.30086303762516
 20
49.49607494340923
 30
0.0
  0
SEQEND
  5
F1
330
E7
100
AcDbEntity
  8
预设值
  0
POLYLINE
  5
F2
330
1F
100
AcDbEntity
  8
预设值
100
AcDb2dPolyline
 66
     1
 10
0.0
 20
0.0
 30
0.0
  0
VERTEX
  5
F3
330
F2
100
AcDbEntity
  8
预设值
100
AcDbVertex
100
AcDb2dVertex
 10
49.95013696237481
 20
39.6826749434092
 30
0.0
  0
VERTEX
  5
F4
330
F2
100
AcDbEntity
  8
预设值
100
AcDbVertex
100
AcDb2dVertex
 10
62.94913696237472
 20
39.68267494340922
 30
0.0
 42
-0.414213562373095
  0
VERTEX
  5
F5
330
F2
100
AcDbEntity
  8
预设值
100
AcDbVertex
100
AcDb2dVertex
 10
63.44913696237472
 20
39.18267494340922
 30
0.0
  0
VERTEX
  5
F6
330
F2
100
AcDbEntity
  8
预设值
100
AcDbVertex
100
AcDb2dVertex
 10
63.44913696237472
 20
26.18337494340922
 30
0.0
 42
-0.4142135623730915
  0
VERTEX
  5
F7
330
F2
100
AcDbEntity
  8
预设值
100
AcDbVertex
100
AcDb2dVertex
 10
62.94913696237472
 20
25.68337494340922
 30
0.0
  0
VERTEX
  5
F8
330
F2
100
AcDbEntity
  8
预设值
100
AcDbVertex
100
AcDb2dVertex
 10
49.9501369623747
 20
25.68337494340921
 30
0.0
 42
-0.4142135623729797
  0
VERTEX
  5
F9
330
F2
100
AcDbEntity
  8
预设值
100
AcDbVertex
100
AcDb2dVertex
 10
49.45013696237481
 20
26.18337494340929
 30
0.0
  0
VERTEX
  5
FA
330
F2
100
AcDbEntity
  8
预设值
100
AcDbVertex
100
AcDb2dVertex
 10
49.4501369623747
 20
39.18267494340914
 30
0.0
 42
-0.414213562373095
  0
VERTEX
  5
FB
330
F2
100
AcDbEntity
  8
预设值
100
AcDbVertex
100
AcDb2dVertex
 10
49.9501369623747
 20
39.68267494340914
 30
0.0
  0
SEQEND
  5
FC
330
F2
100
AcDbEntity
  8
预设值
  0
POLYLINE
  5
FD
330
1F
100
AcDbEntity
  8
预设值
100
AcDb2dPolyline
 66
     1
 10
0.0
 20
0.0
 30
0.0
  0
VERTEX
  5
FE
330
FD
100
AcDbEntity
  8
预设值
100
AcDbVertex
100
AcDb2dVertex
 10
41.00963696237477
 20
38.68337494340921
 30
0.0
  0
VERTEX
  5
FF
330
FD
100
AcDbEntity
  8
预设值
100
AcDbVertex
100
AcDb2dVertex
 10
48.00963696237477
 20
38.68337494340921
 30
0.0
 42
-0.414213562373095
  0
VERTEX
  5
100
330
FD
100
AcDbEntity
  8
预设值
100
AcDbVertex
100
AcDb2dVertex
 10
48.50963696237471
 20
38.18337494340926
 30
0.0
  0
VERTEX
  5
101
330
FD
100
AcDbEntity
  8
预设值
100
AcDbVertex
100
AcDb2dVertex
 10
48.50963696237477
 20
24.18337494340919
 30
0.0
 42
-0.4142135623730915
  0
VERTEX
  5
102
330
FD
100
AcDbEntity
  8
预设值
100
AcDbVertex
100
AcDb2dVertex
 10
48.00963696237477
 20
23.68337494340919
 30
0.0
  0
VERTEX
  5
103
330
FD
100
AcDbEntity
  8
预设值
100
AcDbVertex
100
AcDb2dVertex
 10
41.00963696237477
 20
23.68337494340919
 30
0.0
 42
-0.4142135623730965
  0
VERTEX
  5
104
330
FD
100
AcDbEntity
  8
预设值
100
AcDbVertex
100
AcDb2dVertex
 10
40.50963696237477
 20
24.18337494340919
 30
0.0
  0
VERTEX
  5
105
330
FD
100
AcDbEntity
  8
预设值
100
AcDbVertex
100
AcDb2dVertex
 10
40.50963696237477
 20
38.18337494340925
 30
0.0
 42
-0.4142135623730608
  0
VERTEX
  5
106
330
FD
100
AcDbEntity
  8
预设值
100
AcDbVertex
100
AcDb2dVertex
 10
41.00963696237477
 20
38.68337494340919
 30
0.0
  0
SEQEND
  5
107
330
FD
100
AcDbEntity
  8
预设值
  0
POLYLINE
  5
108
330
1F
100
AcDbEntity
  8
预设值
100
AcDb2dPolyline
 66
     1
 10
0.0
 20
0.0
 30
0.0
  0
VERTEX
  5
109
330
108
100
AcDbEntity
  8
预设值
100
AcDbVertex
100
AcDb2dVertex
 10
-54.82486303762516
 20
25.68337494340922
 30
0.0
  0
VERTEX
  5
10A
330
108
100
AcDbEntity
  8
预设值
100
AcDbVertex
100
AcDb2dVertex
 10
-41.82586303762514
 20
25.68337494340922
 30
0.0
 42
0.4142135623730965
  0
VERTEX
  5
10B
330
108
100
AcDbEntity
  8
预设值
100
AcDbVertex
100
AcDb2dVertex
 10
-41.32586303762514
 20
26.18337494340922
 30
0.0
  0
VERTEX
  5
10C
330
108
100
AcDbEntity
  8
预设值
100
AcDbVertex
100
AcDb2dVertex
 10
-41.32586303762514
 20
39.18267494340922
 30
0.0
 42
0.414213562373095
  0
VERTEX
  5
10D
330
108
100
AcDbEntity
  8
预设值
100
AcDbVertex
100
AcDb2dVertex
 10
-41.82586303762514
 20
39.68267494340922
 30
0.0
  0
VERTEX
  5
10E
330
108
100
AcDbEntity
  8
预设值
100
AcDbVertex
100
AcDb2dVertex
 10
-54.82486303762516
 20
39.68267494340922
 30
0.0
 42
0.414213562373095
  0
VERTEX
  5
10F
330
108
100
AcDbEntity
  8
预设值
100
AcDbVertex
100
AcDb2dVertex
 10
-55.32486303762516
 20
39.18267494340922
 30
0.0
  0
VERTEX
  5
110
330
108
100
AcDbEntity
  8
预设值
100
AcDbVertex
100
AcDb2dVertex
 10
-55.32486303762516
 20
26.18337494340922
 30
0.0
 42
0.4142135623730915
  0
VERTEX
  5
111
330
108
100
AcDbEntity
  8
预设值
100
AcDbVertex
100
AcDb2dVertex
 10
-54.82486303762516
 20
25.68337494340922
 30
0.0
  0
SEQEND
  5
112
330
108
100
AcDbEntity
  8
预设值
  0
POLYLINE
  5
113
330
1F
100
AcDbEntity
  8
预设值
100
AcDb2dPolyline
 66
     1
 10
0.0
 20
0.0
 30
0.0
  0
VERTEX
  5
114
330
113
100
AcDbEntity
  8
预设值
100
AcDbVertex
100
AcDb2dVertex
 10
64.88963696237465
 20
38.68337494340923
 30
0.0
  0
VERTEX
  5
115
330
113
100
AcDbEntity
  8
预设值
100
AcDbVertex
100
AcDb2dVertex
 10
71.88963696237488
 20
38.68337494340921
 30
0.0
 42
-0.4142135623731088
  0
VERTEX
  5
116
330
113
100
AcDbEntity
  8
预设值
100
AcDbVertex
100
AcDb2dVertex
 10
72.38963696237488
 20
38.18337494340922
 30
0.0
  0
VERTEX
  5
117
330
113
100
AcDbEntity
  8
预设值
100
AcDbVertex
100
AcDb2dVertex
 10
72.38963696237488
 20
24.18337494340919
 30
0.0
 42
-0.4142135623730915
  0
VERTEX
  5
118
330
113
100
AcDbEntity
  8
预设值
100
AcDbVertex
100
AcDb2dVertex
 10
71.88963696237488
 20
23.68337494340919
 30
0.0
  0
VERTEX
  5
119
330
113
100
AcDbEntity
  8
预设值
100
AcDbVertex
100
AcDb2dVertex
 10
64.88963696237465
 20
23.68337494340919
 30
0.0
 42
-0.4142135623730965
  0
VERTEX
  5
11A
330
113
100
AcDbEntity
  8
预设值
100
AcDbVertex
100
AcDb2dVertex
 10
64.38963696237465
 20
24.18337494340919
 30
0.0
  0
VERTEX
  5
11B
330
113
100
AcDbEntity
  8
预设值
100
AcDbVertex
100
AcDb2dVertex
 10
64.38963696237465
 20
38.18337494340925
 30
0.0
 42
-0.414213562373095
  0
VERTEX
  5
11C
330
113
100
AcDbEntity
  8
预设值
100
AcDbVertex
100
AcDb2dVertex
 10
64.88963696237465
 20
38.68337494340925
 30
0.0
  0
SEQEND
  5
11D
330
113
100
AcDbEntity
  8
预设值
  0
POLYLINE
  5
11E
330
1F
100
AcDbEntity
  8
预设值
100
AcDb2dPolyline
 66
     1
 10
0.0
 20
0.0
 30
0.0
  0
VERTEX
  5
11F
330
11E
100
AcDbEntity
  8
预设值
100
AcDbVertex
100
AcDb2dVertex
 10
-187.0819630376252
 20
-12.41662505659077
 30
0.0
  0
VERTEX
  5
120
330
11E
100
AcDbEntity
  8
预设值
100
AcDbVertex
100
AcDb2dVertex
 10
-204.8439530376252
 20
-12.41662505659077
 30
0.0
 42
-0.414213562373098
  0
VERTEX
  5
121
330
11E
100
AcDbEntity
  8
预设值
100
AcDbVertex
100
AcDb2dVertex
 10
-205.3439530376252
 20
-11.91662505659077
 30
0.0
  0
VERTEX
  5
122
330
11E
100
AcDbEntity
  8
预设值
100
AcDbVertex
100
AcDb2dVertex
 10
-205.3439530376252
 20
1.082674943409216
 30
0.0
 42
-0.4142135623730927
  0
VERTEX
  5
123
330
11E
100
AcDbEntity
  8
预设值
100
AcDbVertex
100
AcDb2dVertex
 10
-204.8439530376252
 20
1.582674943409216
 30
0.0
  0
VERTEX
  5
124
330
11E
100
AcDbEntity
  8
预设值
100
AcDbVertex
100
AcDb2dVertex
 10
-187.0819630376252
 20
1.582674943409231
 30
0.0
 42
-0.4142135623730974
  0
VERTEX
  5
125
330
11E
100
AcDbEntity
  8
预设值
100
AcDbVertex
100
AcDb2dVertex
 10
-186.5819630376252
 20
1.082674943409231
 30
0.0
  0
VERTEX
  5
126
330
11E
100
AcDbEntity
  8
预设值
100
AcDbVertex
100
AcDb2dVertex
 10
-186.5819630376252
 20
-11.91662505659077
 30
0.0
 42
-0.414213562373092
  0
VERTEX
  5
127
330
11E
100
AcDbEntity
  8
预设值
100
AcDbVertex
100
AcDb2dVertex
 10
-187.0819630376252
 20
-12.41662505659077
 30
0.0
  0
SEQEND
  5
128
330
11E
100
AcDbEntity
  8
预设值
  0
POLYLINE
  5
129
330
1F
100
AcDbEntity
  8
预设值
100
AcDb2dPolyline
 66
     1
 10
0.0
 20
0.0
 30
0.0
  0
VERTEX
  5
12A
330
129
100
AcDbEntity
  8
预设值
100
AcDbVertex
100
AcDb2dVertex
 10
-173.8876630376252
 20
-12.41662505659077
 30
0.0
  0
VERTEX
  5
12B
330
129
100
AcDbEntity
  8
预设值
100
AcDbVertex
100
AcDb2dVertex
 10
-160.8883630376251
 20
-12.41662505659077
 30
0.0
 42
0.414213562373098
  0
VERTEX
  5
12C
330
129
100
AcDbEntity
  8
预设值
100
AcDbVertex
100
AcDb2dVertex
 10
-160.3883630376251
 20
-11.91662505659077
 30
0.0
  0
VERTEX
  5
12D
330
129
100
AcDbEntity
  8
预设值
100
AcDbVertex
100
AcDb2dVertex
 10
-160.3883630376251
 20
1.082674943409231
 30
0.0
 42
0.4142135623730864
  0
VERTEX
  5
12E
330
129
100
AcDbEntity
  8
预设值
100
AcDbVertex
100
AcDb2dVertex
 10
-160.8883630376251
 20
1.582674943409216
 30
0.0
  0
VERTEX
  5
12F
330
129
100
AcDbEntity
  8
预设值
100
AcDbVertex
100
AcDb2dVertex
 10
-173.8876630376252
 20
1.582674943409202
 30
0.0
 42
0.4142135623730955
  0
VERTEX
  5
130
330
129
100
AcDbEntity
  8
预设值
100
AcDbVertex
100
AcDb2dVertex
 10
-174.3876630376252
 20
1.082674943409231
 30
0.0
  0
VERTEX
  5
131
330
129
100
AcDbEntity
  8
预设值
100
AcDbVertex
100
AcDb2dVertex
 10
-174.3876630376252
 20
-11.91662505659077
 30
0.0
 42
0.414213562373092
  0
VERTEX
  5
132
330
129
100
AcDbEntity
  8
预设值
100
AcDbVertex
100
AcDb2dVertex
 10
-173.8876630376252
 20
-12.41662505659077
 30
0.0
  0
SEQEND
  5
133
330
129
100
AcDbEntity
  8
预设值
  0
POLYLINE
  5
134
330
1F
100
AcDbEntity
  8
预设值
100
AcDb2dPolyline
 66
     1
 10
0.0
 20
0.0
 30
0.0
  0
VERTEX
  5
135
330
134
100
AcDbEntity
  8
预设值
100
AcDbVertex
100
AcDb2dVertex
 10
115.3371369623749
 20
25.68337494340922
 30
0.0
  0
VERTEX
  5
136
330
134
100
AcDbEntity
  8
预设值
100
AcDbVertex
100
AcDb2dVertex
 10
102.3371369623749
 20
25.68337494340922
 30
0.0
 42
-0.4142135623730965
  0
VERTEX
  5
137
330
134
100
AcDbEntity
  8
预设值
100
AcDbVertex
100
AcDb2dVertex
 10
101.8371369623749
 20
26.18337494340922
 30
0.0
  0
VERTEX
  5
138
330
134
100
AcDbEntity
  8
预设值
100
AcDbVertex
100
AcDb2dVertex
 10
101.8371369623749
 20
39.18267494340922
 30
0.0
 42
-0.414213562373095
  0
VERTEX
  5
139
330
134
100
AcDbEntity
  8
预设值
100
AcDbVertex
100
AcDb2dVertex
 10
102.3371369623749
 20
39.68267494340922
 30
0.0
  0
VERTEX
  5
13A
330
134
100
AcDbEntity
  8
预设值
100
AcDbVertex
100
AcDb2dVertex
 10
115.3371369623749
 20
39.68267494340922
 30
0.0
 42
-0.414213562373095
  0
VERTEX
  5
13B
330
134
100
AcDbEntity
  8
预设值
100
AcDbVertex
100
AcDb2dVertex
 10
115.8371369623749
 20
39.18267494340922
 30
0.0
  0
VERTEX
  5
13C
330
134
100
AcDbEntity
  8
预设值
100
AcDbVertex
100
AcDb2dVertex
 10
115.8371369623749
 20
26.18337494340922
 30
0.0
 42
-0.4142135623730915
  0
VERTEX
  5
13D
330
134
100
AcDbEntity
  8
预设值
100
AcDbVertex
100
AcDb2dVertex
 10
115.3371369623749
 20
25.68337494340922
 30
0.0
  0
SEQEND
  5
13E
330
134
100
AcDbEntity
  8
预设值
  0
POLYLINE
  5
13F
330
1F
100
AcDbEntity
  8
预设值
100
AcDb2dPolyline
 66
     1
 10
0.0
 20
0.0
 30
0.0
  0
VERTEX
  5
140
330
13F
100
AcDbEntity
  8
预设值
100
AcDbVertex
100
AcDb2dVertex
 10
115.3371369623749
 20
6.633374943409237
 30
0.0
  0
VERTEX
  5
141
330
13F
100
AcDbEntity
  8
预设值
100
AcDbVertex
100
AcDb2dVertex
 10
102.3371369623749
 20
6.633374943409223
 30
0.0
 42
-0.4142135623730887
  0
VERTEX
  5
142
330
13F
100
AcDbEntity
  8
预设值
100
AcDbVertex
100
AcDb2dVertex
 10
101.8371369623749
 20
7.133374943409237
 30
0.0
  0
VERTEX
  5
143
330
13F
100
AcDbEntity
  8
预设值
100
AcDbVertex
100
AcDb2dVertex
 10
101.8371369623749
 20
20.13267494340921
 30
0.0
 42
-0.4142135623730915
  0
VERTEX
  5
144
330
13F
100
AcDbEntity
  8
预设值
100
AcDbVertex
100
AcDb2dVertex
 10
102.3371369623749
 20
20.63267494340921
 30
0.0
  0
VERTEX
  5
145
330
13F
100
AcDbEntity
  8
预设值
100
AcDbVertex
100
AcDb2dVertex
 10
115.3371369623749
 20
20.63267494340921
 30
0.0
 42
-0.4142135623730965
  0
VERTEX
  5
146
330
13F
100
AcDbEntity
  8
预设值
100
AcDbVertex
100
AcDb2dVertex
 10
115.8371369623749
 20
20.13267494340921
 30
0.0
  0
VERTEX
  5
147
330
13F
100
AcDbEntity
  8
预设值
100
AcDbVertex
100
AcDb2dVertex
 10
115.8371369623749
 20
7.133374943409237
 30
0.0
 42
-0.4142135623730929
  0
VERTEX
  5
148
330
13F
100
AcDbEntity
  8
预设值
100
AcDbVertex
100
AcDb2dVertex
 10
115.3371369623749
 20
6.633374943409237
 30
0.0
  0
SEQEND
  5
149
330
13F
100
AcDbEntity
  8
预设值
  0
POLYLINE
  5
14A
330
1F
100
AcDbEntity
  8
预设值
100
AcDb2dPolyline
 66
     1
 10
0.0
 20
0.0
 30
0.0
  0
VERTEX
  5
14B
330
14A
100
AcDbEntity
  8
预设值
100
AcDbVertex
100
AcDb2dVertex
 10
-154.8376630376251
 20
-12.41662505659077
 30
0.0
  0
VERTEX
  5
14C
330
14A
100
AcDbEntity
  8
预设值
100
AcDbVertex
100
AcDb2dVertex
 10
-141.8383630376252
 20
-12.41662505659077
 30
0.0
 42
0.4142135623730947
  0
VERTEX
  5
14D
330
14A
100
AcDbEntity
  8
预设值
100
AcDbVertex
100
AcDb2dVertex
 10
-141.3383630376252
 20
-11.9166250565908
 30
0.0
  0
VERTEX
  5
14E
330
14A
100
AcDbEntity
  8
预设值
100
AcDbVertex
100
AcDb2dVertex
 10
-141.3383630376252
 20
1.082674943409238
 30
0.0
 42
0.4142135623730677
  0
VERTEX
  5
14F
330
14A
100
AcDbEntity
  8
预设值
100
AcDbVertex
100
AcDb2dVertex
 10
-141.8383630376252
 20
1.582674943409209
 30
0.0
  0
VERTEX
  5
150
330
14A
100
AcDbEntity
  8
预设值
100
AcDbVertex
100
AcDb2dVertex
 10
-154.8376630376251
 20
1.582674943409216
 30
0.0
 42
0.4142135623730974
  0
VERTEX
  5
151
330
14A
100
AcDbEntity
  8
预设值
100
AcDbVertex
100
AcDb2dVertex
 10
-155.3376630376251
 20
1.082674943409216
 30
0.0
  0
VERTEX
  5
152
330
14A
100
AcDbEntity
  8
预设值
100
AcDbVertex
100
AcDb2dVertex
 10
-155.3376630376251
 20
-11.91662505659077
 30
0.0
 42
0.414213562373092
  0
VERTEX
  5
153
330
14A
100
AcDbEntity
  8
预设值
100
AcDbVertex
100
AcDb2dVertex
 10
-154.8376630376251
 20
-12.41662505659077
 30
0.0
  0
SEQEND
  5
154
330
14A
100
AcDbEntity
  8
预设值
  0
POLYLINE
  5
155
330
1F
100
AcDbEntity
  8
预设值
100
AcDb2dPolyline
 66
     1
 10
0.0
 20
0.0
 30
0.0
  0
VERTEX
  5
156
330
155
100
AcDbEntity
  8
预设值
100
AcDbVertex
100
AcDb2dVertex
 10
-122.7883630376252
 20
-12.41662505659077
 30
0.0
  0
VERTEX
  5
157
330
155
100
AcDbEntity
  8
预设值
100
AcDbVertex
100
AcDb2dVertex
 10
-135.7876630376252
 20
-12.41662505659077
 30
0.0
 42
-0.414213562373098
  0
VERTEX
  5
158
330
155
100
AcDbEntity
  8
预设值
100
AcDbVertex
100
AcDb2dVertex
 10
-136.2876630376252
 20
-11.91662505659077
 30
0.0
  0
VERTEX
  5
159
330
155
100
AcDbEntity
  8
预设值
100
AcDbVertex
100
AcDb2dVertex
 10
-136.2876630376252
 20
1.082674943409216
 30
0.0
 42
-0.4142135623730927
  0
VERTEX
  5
15A
330
155
100
AcDbEntity
  8
预设值
100
AcDbVertex
100
AcDb2dVertex
 10
-135.7876630376252
 20
1.582674943409216
 30
0.0
  0
VERTEX
  5
15B
330
155
100
AcDbEntity
  8
预设值
100
AcDbVertex
100
AcDb2dVertex
 10
-122.7883630376252
 20
1.582674943409224
 30
0.0
 42
-0.4142135623730974
  0
VERTEX
  5
15C
330
155
100
AcDbEntity
  8
预设值
100
AcDbVertex
100
AcDb2dVertex
 10
-122.2883630376252
 20
1.082674943409224
 30
0.0
  0
VERTEX
  5
15D
330
155
100
AcDbEntity
  8
预设值
100
AcDbVertex
100
AcDb2dVertex
 10
-122.2883630376252
 20
-11.91662505659077
 30
0.0
 42
-0.414213562373092
  0
VERTEX
  5
15E
330
155
100
AcDbEntity
  8
预设值
100
AcDbVertex
100
AcDb2dVertex
 10
-122.7883630376252
 20
-12.41662505659077
 30
0.0
  0
SEQEND
  5
15F
330
155
100
AcDbEntity
  8
预设值
  0
POLYLINE
  5
160
330
1F
100
AcDbEntity
  8
预设值
100
AcDb2dPolyline
 66
     1
 10
0.0
 20
0.0
 30
0.0
  0
VERTEX
  5
161
330
160
100
AcDbEntity
  8
预设值
100
AcDbVertex
100
AcDb2dVertex
 10
15.32413696237484
 20
49.49607494340923
 30
0.0
  0
VERTEX
  5
162
330
160
100
AcDbEntity
  8
预设值
100
AcDbVertex
100
AcDb2dVertex
 10
2.325136962374813
 20
49.49607494340923
 30
0.0
 42
-0.4142135623730927
  0
VERTEX
  5
163
330
160
100
AcDbEntity
  8
预设值
100
AcDbVertex
100
AcDb2dVertex
 10
1.825136962374813
 20
49.99607494340923
 30
0.0
  0
VERTEX
  5
164
330
160
100
AcDbEntity
  8
预设值
100
AcDbVertex
100
AcDb2dVertex
 10
1.825136962374813
 20
62.99507494340922
 30
0.0
 42
-0.4142135623730974
  0
VERTEX
  5
165
330
160
100
AcDbEntity
  8
预设值
100
AcDbVertex
100
AcDb2dVertex
 10
2.325136962374813
 20
63.49507494340922
 30
0.0
  0
VERTEX
  5
166
330
160
100
AcDbEntity
  8
预设值
100
AcDbVertex
100
AcDb2dVertex
 10
15.32413696237484
 20
63.49507494340922
 30
0.0
 42
-0.4142135623730872
  0
VERTEX
  5
167
330
160
100
AcDbEntity
  8
预设值
100
AcDbVertex
100
AcDb2dVertex
 10
15.82413696237481
 20
62.99507494340924
 30
0.0
  0
VERTEX
  5
168
330
160
100
AcDbEntity
  8
预设值
100
AcDbVertex
100
AcDb2dVertex
 10
15.82413696237484
 20
49.99607494340923
 30
0.0
 42
-0.414213562373098
  0
VERTEX
  5
169
330
160
100
AcDbEntity
  8
预设值
100
AcDbVertex
100
AcDb2dVertex
 10
15.32413696237484
 20
49.49607494340923
 30
0.0
  0
SEQEND
  5
16A
330
160
100
AcDbEntity
  8
预设值
  0
POLYLINE
  5
16B
330
1F
100
AcDbEntity
  8
预设值
100
AcDb2dPolyline
 66
     1
 10
0.0
 20
0.0
 30
0.0
  0
VERTEX
  5
16C
330
16B
100
AcDbEntity
  8
预设值
100
AcDbVertex
100
AcDb2dVertex
 10
-116.7376630376252
 20
-12.41662505659077
 30
0.0
  0
VERTEX
  5
16D
330
16B
100
AcDbEntity
  8
预设值
100
AcDbVertex
100
AcDb2dVertex
 10
-103.7378630376252
 20
-12.41662505659077
 30
0.0
 42
0.414213562373098
  0
VERTEX
  5
16E
330
16B
100
AcDbEntity
  8
预设值
100
AcDbVertex
100
AcDb2dVertex
 10
-103.2378630376252
 20
-11.91662505659077
 30
0.0
  0
VERTEX
  5
16F
330
16B
100
AcDbEntity
  8
预设值
100
AcDbVertex
100
AcDb2dVertex
 10
-103.2378630376252
 20
1.082674943409209
 30
0.0
 42
0.4142135623731117
  0
VERTEX
  5
170
330
16B
100
AcDbEntity
  8
预设值
100
AcDbVertex
100
AcDb2dVertex
 10
-103.7378630376252
 20
1.582674943409238
 30
0.0
  0
VERTEX
  5
171
330
16B
100
AcDbEntity
  8
预设值
100
AcDbVertex
100
AcDb2dVertex
 10
-116.7376630376252
 20
1.582674943409224
 30
0.0
 42
0.4142135623731034
  0
VERTEX
  5
172
330
16B
100
AcDbEntity
  8
预设值
100
AcDbVertex
100
AcDb2dVertex
 10
-117.2376630376252
 20
1.082674943409209
 30
0.0
  0
VERTEX
  5
173
330
16B
100
AcDbEntity
  8
预设值
100
AcDbVertex
100
AcDb2dVertex
 10
-117.2376630376252
 20
-11.91662505659077
 30
0.0
 42
0.414213562373092
  0
VERTEX
  5
174
330
16B
100
AcDbEntity
  8
预设值
100
AcDbVertex
100
AcDb2dVertex
 10
-116.7376630376252
 20
-12.41662505659077
 30
0.0
  0
SEQEND
  5
175
330
16B
100
AcDbEntity
  8
预设值
  0
POLYLINE
  5
176
330
1F
100
AcDbEntity
  8
预设值
100
AcDb2dPolyline
 66
     1
 10
0.0
 20
0.0
 30
0.0
  0
VERTEX
  5
177
330
176
100
AcDbEntity
  8
预设值
100
AcDbVertex
100
AcDb2dVertex
 10
-73.87486303762523
 20
25.68337494340922
 30
0.0
  0
VERTEX
  5
178
330
176
100
AcDbEntity
  8
预设值
100
AcDbVertex
100
AcDb2dVertex
 10
-60.87586303762521
 20
25.68337494340922
 30
0.0
 42
0.4142135623730965
  0
VERTEX
  5
179
330
176
100
AcDbEntity
  8
预设值
100
AcDbVertex
100
AcDb2dVertex
 10
-60.37586303762521
 20
26.18337494340922
 30
0.0
  0
VERTEX
  5
17A
330
176
100
AcDbEntity
  8
预设值
100
AcDbVertex
100
AcDb2dVertex
 10
-60.37586303762521
 20
39.18267494340922
 30
0.0
 42
0.414213562373095
  0
VERTEX
  5
17B
330
176
100
AcDbEntity
  8
预设值
100
AcDbVertex
100
AcDb2dVertex
 10
-60.87586303762521
 20
39.68267494340922
 30
0.0
  0
VERTEX
  5
17C
330
176
100
AcDbEntity
  8
预设值
100
AcDbVertex
100
AcDb2dVertex
 10
-73.87486303762523
 20
39.68267494340922
 30
0.0
 42
0.4142135623730951
  0
VERTEX
  5
17D
330
176
100
AcDbEntity
  8
预设值
100
AcDbVertex
100
AcDb2dVertex
 10
-74.37486303762527
 20
39.18267494340918
 30
0.0
  0
VERTEX
  5
17E
330
176
100
AcDbEntity
  8
预设值
100
AcDbVertex
100
AcDb2dVertex
 10
-74.37486303762523
 20
26.18337494340926
 30
0.0
 42
0.4142135623730602
  0
VERTEX
  5
17F
330
176
100
AcDbEntity
  8
预设值
100
AcDbVertex
100
AcDb2dVertex
 10
-73.87486303762512
 20
25.68337494340921
 30
0.0
  0
SEQEND
  5
180
330
176
100
AcDbEntity
  8
预设值
  0
CIRCLE
  5
181
330
1F
100
AcDbEntity
  8
预设值
100
AcDbCircle
 10
-189.7252130376253
 20
68.99507494340922
 30
0.0
 40
1.099999999999998
  0
CIRCLE
  5
182
330
1F
100
AcDbEntity
  8
预设值
100
AcDbCircle
 10
-109.7252130376252
 20
68.99507494340922
 30
0.0
 40
1.099999999999994
  0
POLYLINE
  5
183
330
1F
100
AcDbEntity
  8
预设值
100
AcDb2dPolyline
 66
     1
 10
0.0
 20
0.0
 30
0.0
  0
VERTEX
  5
184
330
183
100
AcDbEntity
  8
预设值
100
AcDbVertex
100
AcDb2dVertex
 10
-65.63786303762527
 20
-12.41662505659077
 30
0.0
  0
VERTEX
  5
185
330
183
100
AcDbEntity
  8
预设值
100
AcDbVertex
100
AcDb2dVertex
 10
-78.63786303762527
 20
-12.41662505659077
 30
0.0
 42
-0.414213562373098
  0
VERTEX
  5
186
330
183
100
AcDbEntity
  8
预设值
100
AcDbVertex
100
AcDb2dVertex
 10
-79.13786303762527
 20
-11.91662505659077
 30
0.0
  0
VERTEX
  5
187
330
183
100
AcDbEntity
  8
预设值
100
AcDbVertex
100
AcDb2dVertex
 10
-79.13786303762527
 20
1.082674943409216
 30
0.0
 42
-0.4142135623730927
  0
VERTEX
  5
188
330
183
100
AcDbEntity
  8
预设值
100
AcDbVertex
100
AcDb2dVertex
 10
-78.63786303762527
 20
1.582674943409216
 30
0.0
  0
VERTEX
  5
189
330
183
100
AcDbEntity
  8
预设值
100
AcDbVertex
100
AcDb2dVertex
 10
-65.63786303762527
 20
1.582674943409231
 30
0.0
 42
-0.4142135623730884
  0
VERTEX
  5
18A
330
183
100
AcDbEntity
  8
预设值
100
AcDbVertex
100
AcDb2dVertex
 10
-65.13786303762527
 20
1.082674943409216
 30
0.0
  0
VERTEX
  5
18B
330
183
100
AcDbEntity
  8
预设值
100
AcDbVertex
100
AcDb2dVertex
 10
-65.13786303762527
 20
-11.91662505659077
 30
0.0
 42
-0.414213562373092
  0
VERTEX
  5
18C
330
183
100
AcDbEntity
  8
预设值
100
AcDbVertex
100
AcDb2dVertex
 10
-65.63786303762527
 20
-12.41662505659077
 30
0.0
  0
SEQEND
  5
18D
330
183
100
AcDbEntity
  8
预设值
  0
POLYLINE
  5
18E
330
1F
100
AcDbEntity
  8
预设值
100
AcDb2dPolyline
 66
     1
 10
0.0
 20
0.0
 30
0.0
  0
VERTEX
  5
18F
330
18E
100
AcDbEntity
  8
预设值
100
AcDbVertex
100
AcDb2dVertex
 10
53.42413696237486
 20
49.49607494340923
 30
0.0
  0
VERTEX
  5
190
330
18E
100
AcDbEntity
  8
预设值
100
AcDbVertex
100
AcDb2dVertex
 10
40.42513696237484
 20
49.49607494340921
 30
0.0
 42
-0.4142135623730901
  0
VERTEX
  5
191
330
18E
100
AcDbEntity
  8
预设值
100
AcDbVertex
100
AcDb2dVertex
 10
39.92513696237484
 20
49.99607494340923
 30
0.0
  0
VERTEX
  5
192
330
18E
100
AcDbEntity
  8
预设值
100
AcDbVertex
100
AcDb2dVertex
 10
39.92513696237484
 20
62.99507494340922
 30
0.0
 42
-0.414213562373095
  0
VERTEX
  5
193
330
18E
100
AcDbEntity
  8
预设值
100
AcDbVertex
100
AcDb2dVertex
 10
40.42513696237484
 20
63.49507494340922
 30
0.0
  0
VERTEX
  5
194
330
18E
100
AcDbEntity
  8
预设值
100
AcDbVertex
100
AcDb2dVertex
 10
53.42413696237486
 20
63.49507494340922
 30
0.0
 42
-0.414213562373095
  0
VERTEX
  5
195
330
18E
100
AcDbEntity
  8
预设值
100
AcDbVertex
100
AcDb2dVertex
 10
53.92413696237486
 20
62.99507494340922
 30
0.0
  0
VERTEX
  5
196
330
18E
100
AcDbEntity
  8
预设值
100
AcDbVertex
100
AcDb2dVertex
 10
53.92413696237486
 20
49.99607494340923
 30
0.0
 42
-0.414213562373095
  0
VERTEX
  5
197
330
18E
100
AcDbEntity
  8
预设值
100
AcDbVertex
100
AcDb2dVertex
 10
53.42413696237486
 20
49.49607494340923
 30
0.0
  0
SEQEND
  5
198
330
18E
100
AcDbEntity
  8
预设值
  0
CIRCLE
  5
199
330
1F
100
AcDbEntity
  8
预设值
100
AcDbCircle
 10
-189.7252130376253
 20
-56.01665505659076
 30
0.0
 40
1.100000000000009
  0
POLYLINE
  5
19A
330
1F
100
AcDbEntity
  8
预设值
100
AcDb2dPolyline
 66
     1
 10
0.0
 20
0.0
 30
0.0
  0
VERTEX
  5
19B
330
19A
100
AcDbEntity
  8
预设值
100
AcDbVertex
100
AcDb2dVertex
 10
-79.92586303762516
 20
39.68267494340922
 30
0.0
  0
VERTEX
  5
19C
330
19A
100
AcDbEntity
  8
预设值
100
AcDbVertex
100
AcDb2dVertex
 10
-92.92686303762525
 20
39.68267494340922
 30
0.0
 42
0.414213562373095
  0
VERTEX
  5
19D
330
19A
100
AcDbEntity
  8
预设值
100
AcDbVertex
100
AcDb2dVertex
 10
-93.42686303762525
 20
39.18267494340922
 30
0.0
  0
VERTEX
  5
19E
330
19A
100
AcDbEntity
  8
预设值
100
AcDbVertex
100
AcDb2dVertex
 10
-93.42686303762525
 20
26.18337494340922
 30
0.0
 42
0.4142135623730915
  0
VERTEX
  5
19F
330
19A
100
AcDbEntity
  8
预设值
100
AcDbVertex
100
AcDb2dVertex
 10
-92.92686303762525
 20
25.68337494340922
 30
0.0
  0
VERTEX
  5
1A0
330
19A
100
AcDbEntity
  8
预设值
100
AcDbVertex
100
AcDb2dVertex
 10
-79.92586303762516
 20
25.68337494340922
 30
0.0
 42
0.4142135623730965
  0
VERTEX
  5
1A1
330
19A
100
AcDbEntity
  8
预设值
100
AcDbVertex
100
AcDb2dVertex
 10
-79.42586303762516
 20
26.18337494340922
 30
0.0
  0
VERTEX
  5
1A2
330
19A
100
AcDbEntity
  8
预设值
100
AcDbVertex
100
AcDb2dVertex
 10
-79.42586303762516
 20
39.18267494340922
 30
0.0
 42
0.414213562373095
  0
VERTEX
  5
1A3
330
19A
100
AcDbEntity
  8
预设值
100
AcDbVertex
100
AcDb2dVertex
 10
-79.92586303762516
 20
39.68267494340922
 30
0.0
  0
SEQEND
  5
1A4
330
19A
100
AcDbEntity
  8
预设值
  0
POLYLINE
  5
1A5
330
1F
100
AcDbEntity
  8
预设值
100
AcDb2dPolyline
 66
     1
 10
0.0
 20
0.0
 30
0.0
  0
VERTEX
  5
1A6
330
1A5
100
AcDbEntity
  8
预设值
100
AcDbVertex
100
AcDb2dVertex
 10
30.90013696237475
 20
6.633374943409237
 30
0.0
  0
VERTEX
  5
1A7
330
1A5
100
AcDbEntity
  8
预设值
100
AcDbVertex
100
AcDb2dVertex
 10
43.89913696237477
 20
6.633374943409237
 30
0.0
 42
0.4142135623730976
  0
VERTEX
  5
1A8
330
1A5
100
AcDbEntity
  8
预设值
100
AcDbVertex
100
AcDb2dVertex
 10
44.39913696237477
 20
7.133374943409237
 30
0.0
  0
VERTEX
  5
1A9
330
1A5
100
AcDbEntity
  8
预设值
100
AcDbVertex
100
AcDb2dVertex
 10
44.39913696237477
 20
20.13267494340921
 30
0.0
 42
0.4142135623730915
  0
VERTEX
  5
1AA
330
1A5
100
AcDbEntity
  8
预设值
100
AcDbVertex
100
AcDb2dVertex
 10
43.89913696237477
 20
20.63267494340921
 30
0.0
  0
VERTEX
  5
1AB
330
1A5
100
AcDbEntity
  8
预设值
100
AcDbVertex
100
AcDb2dVertex
 10
30.90013696237475
 20
20.63267494340921
 30
0.0
 42
0.4142135623730929
  0
VERTEX
  5
1AC
330
1A5
100
AcDbEntity
  8
预设值
100
AcDbVertex
100
AcDb2dVertex
 10
30.40013696237475
 20
20.13267494340921
 30
0.0
  0
VERTEX
  5
1AD
330
1A5
100
AcDbEntity
  8
预设值
100
AcDbVertex
100
AcDb2dVertex
 10
30.40013696237475
 20
7.133374943409237
 30
0.0
 42
0.4142135623730945
  0
VERTEX
  5
1AE
330
1A5
100
AcDbEntity
  8
预设值
100
AcDbVertex
100
AcDb2dVertex
 10
30.90013696237475
 20
6.633374943409237
 30
0.0
  0
SEQEND
  5
1AF
330
1A5
100
AcDbEntity
  8
预设值
  0
POLYLINE
  5
1B0
330
1F
100
AcDbEntity
  8
预设值
100
AcDb2dPolyline
 66
     1
 10
0.0
 20
0.0
 30
0.0
  0
VERTEX
  5
1B1
330
1B0
100
AcDbEntity
  8
预设值
100
AcDbVertex
100
AcDb2dVertex
 10
72.47413696237481
 20
49.49607494340923
 30
0.0
  0
VERTEX
  5
1B2
330
1B0
100
AcDbEntity
  8
预设值
100
AcDbVertex
100
AcDb2dVertex
 10
59.47513696237479
 20
49.49607494340923
 30
0.0
 42
-0.414213562373095
  0
VERTEX
  5
1B3
330
1B0
100
AcDbEntity
  8
预设值
100
AcDbVertex
100
AcDb2dVertex
 10
58.97513696237479
 20
49.99607494340923
 30
0.0
  0
VERTEX
  5
1B4
330
1B0
100
AcDbEntity
  8
预设值
100
AcDbVertex
100
AcDb2dVertex
 10
58.97513696237479
 20
62.99507494340922
 30
0.0
 42
-0.414213562373095
  0
VERTEX
  5
1B5
330
1B0
100
AcDbEntity
  8
预设值
100
AcDbVertex
100
AcDb2dVertex
 10
59.47513696237479
 20
63.49507494340922
 30
0.0
  0
VERTEX
  5
1B6
330
1B0
100
AcDbEntity
  8
预设值
100
AcDbVertex
100
AcDb2dVertex
 10
72.47413696237481
 20
63.49507494340924
 30
0.0
 42
-0.4142135623730925
  0
VERTEX
  5
1B7
330
1B0
100
AcDbEntity
  8
预设值
100
AcDbVertex
100
AcDb2dVertex
 10
72.9741369623748
 20
62.99507494340925
 30
0.0
  0
VERTEX
  5
1B8
330
1B0
100
AcDbEntity
  8
预设值
100
AcDbVertex
100
AcDb2dVertex
 10
72.97413696237481
 20
49.99607494340923
 30
0.0
 42
-0.414213562373095
  0
VERTEX
  5
1B9
330
1B0
100
AcDbEntity
  8
预设值
100
AcDbVertex
100
AcDb2dVertex
 10
72.47413696237481
 20
49.49607494340923
 30
0.0
  0
SEQEND
  5
1BA
330
1B0
100
AcDbEntity
  8
预设值
  0
POLYLINE
  5
1BB
330
1F
100
AcDbEntity
  8
预设值
100
AcDb2dPolyline
 66
     1
 10
0.0
 20
0.0
 30
0.0
  0
VERTEX
  5
1BC
330
1BB
100
AcDbEntity
  8
预设值
100
AcDbVertex
100
AcDb2dVertex
 10
-46.5878630376252
 20
-12.41662505659077
 30
0.0
  0
VERTEX
  5
1BD
330
1BB
100
AcDbEntity
  8
预设值
100
AcDbVertex
100
AcDb2dVertex
 10
-59.5878630376252
 20
-12.41662505659077
 30
0.0
 42
-0.414213562373098
  0
VERTEX
  5
1BE
330
1BB
100
AcDbEntity
  8
预设值
100
AcDbVertex
100
AcDb2dVertex
 10
-60.0878630376252
 20
-11.91662505659077
 30
0.0
  0
VERTEX
  5
1BF
330
1BB
100
AcDbEntity
  8
预设值
100
AcDbVertex
100
AcDb2dVertex
 10
-60.0878630376252
 20
1.082674943409216
 30
0.0
 42
-0.4142135623730927
  0
VERTEX
  5
1C0
330
1BB
100
AcDbEntity
  8
预设值
100
AcDbVertex
100
AcDb2dVertex
 10
-59.5878630376252
 20
1.582674943409216
 30
0.0
  0
VERTEX
  5
1C1
330
1BB
100
AcDbEntity
  8
预设值
100
AcDbVertex
100
AcDb2dVertex
 10
-46.5878630376252
 20
1.582674943409216
 30
0.0
 42
-0.4142135623730974
  0
VERTEX
  5
1C2
330
1BB
100
AcDbEntity
  8
预设值
100
AcDbVertex
100
AcDb2dVertex
 10
-46.0878630376252
 20
1.082674943409216
 30
0.0
  0
VERTEX
  5
1C3
330
1BB
100
AcDbEntity
  8
预设值
100
AcDbVertex
100
AcDb2dVertex
 10
-46.0878630376252
 20
-11.91662505659077
 30
0.0
 42
-0.414213562373092
  0
VERTEX
  5
1C4
330
1BB
100
AcDbEntity
  8
预设值
100
AcDbVertex
100
AcDb2dVertex
 10
-46.5878630376252
 20
-12.41662505659077
 30
0.0
  0
SEQEND
  5
1C5
330
1BB
100
AcDbEntity
  8
预设值
  0
POLYLINE
  5
1C6
330
1F
100
AcDbEntity
  8
预设值
100
AcDb2dPolyline
 66
     1
 10
0.0
 20
0.0
 30
0.0
  0
VERTEX
  5
1C7
330
1C6
100
AcDbEntity
  8
预设值
100
AcDbVertex
100
AcDb2dVertex
 10
-7.199863037625164
 20
6.633374943409223
 30
0.0
  0
VERTEX
  5
1C8
330
1C6
100
AcDbEntity
  8
预设值
100
AcDbVertex
100
AcDb2dVertex
 10
5.79913696237486
 20
6.633374943409237
 30
0.0
 42
0.4142135623730955
  0
VERTEX
  5
1C9
330
1C6
100
AcDbEntity
  8
预设值
100
AcDbVertex
100
AcDb2dVertex
 10
6.29913696237486
 20
7.133374943409237
 30
0.0
  0
VERTEX
  5
1CA
330
1C6
100
AcDbEntity
  8
预设值
100
AcDbVertex
100
AcDb2dVertex
 10
6.29913696237486
 20
20.13267494340921
 30
0.0
 42
0.4142135623730941
  0
VERTEX
  5
1CB
330
1C6
100
AcDbEntity
  8
预设值
100
AcDbVertex
100
AcDb2dVertex
 10
5.79913696237486
 20
20.63267494340921
 30
0.0
  0
VERTEX
  5
1CC
330
1C6
100
AcDbEntity
  8
预设值
100
AcDbVertex
100
AcDb2dVertex
 10
-7.199863037625164
 20
20.6326749434092
 30
0.0
 42
0.4142135623730936
  0
VERTEX
  5
1CD
330
1C6
100
AcDbEntity
  8
预设值
100
AcDbVertex
100
AcDb2dVertex
 10
-7.699863037625136
 20
20.13267494340923
 30
0.0
  0
VERTEX
  5
1CE
330
1C6
100
AcDbEntity
  8
预设值
100
AcDbVertex
100
AcDb2dVertex
 10
-7.699863037625164
 20
7.133374943409244
 30
0.0
 42
0.4142135623731079
  0
VERTEX
  5
1CF
330
1C6
100
AcDbEntity
  8
预设值
100
AcDbVertex
100
AcDb2dVertex
 10
-7.199863037625164
 20
6.633374943409223
 30
0.0
  0
SEQEND
  5
1D0
330
1C6
100
AcDbEntity
  8
预设值
  0
POLYLINE
  5
1D1
330
1F
100
AcDbEntity
  8
预设值
100
AcDb2dPolyline
 66
     1
 10
0.0
 20
0.0
 30
0.0
  0
VERTEX
  5
1D2
330
1D1
100
AcDbEntity
  8
预设值
100
AcDbVertex
100
AcDb2dVertex
 10
-26.24986303762523
 20
6.633374943409223
 30
0.0
  0
VERTEX
  5
1D3
330
1D1
100
AcDbEntity
  8
预设值
100
AcDbVertex
100
AcDb2dVertex
 10
-13.25086303762521
 20
6.633374943409223
 30
0.0
 42
0.4142135623730954
  0
VERTEX
  5
1D4
330
1D1
100
AcDbEntity
  8
预设值
100
AcDbVertex
100
AcDb2dVertex
 10
-12.75086303762522
 20
7.133374943409216
 30
0.0
  0
VERTEX
  5
1D5
330
1D1
100
AcDbEntity
  8
预设值
100
AcDbVertex
100
AcDb2dVertex
 10
-12.75086303762521
 20
20.13267494340923
 30
0.0
 42
0.4142135623730944
  0
VERTEX
  5
1D6
330
1D1
100
AcDbEntity
  8
预设值
100
AcDbVertex
100
AcDb2dVertex
 10
-13.25086303762521
 20
20.63267494340923
 30
0.0
  0
VERTEX
  5
1D7
330
1D1
100
AcDbEntity
  8
预设值
100
AcDbVertex
100
AcDb2dVertex
 10
-26.24986303762523
 20
20.63267494340921
 30
0.0
 42
0.4142135623730929
  0
VERTEX
  5
1D8
330
1D1
100
AcDbEntity
  8
预设值
100
AcDbVertex
100
AcDb2dVertex
 10
-26.74986303762523
 20
20.13267494340921
 30
0.0
  0
VERTEX
  5
1D9
330
1D1
100
AcDbEntity
  8
预设值
100
AcDbVertex
100
AcDb2dVertex
 10
-26.74986303762523
 20
7.133374943409251
 30
0.0
 42
0.4142135623730945
  0
VERTEX
  5
1DA
330
1D1
100
AcDbEntity
  8
预设值
100
AcDbVertex
100
AcDb2dVertex
 10
-26.24986303762523
 20
6.633374943409251
 30
0.0
  0
SEQEND
  5
1DB
330
1D1
100
AcDbEntity
  8
预设值
  0
POLYLINE
  5
1DC
330
1F
100
AcDbEntity
  8
预设值
100
AcDb2dPolyline
 66
     1
 10
0.0
 20
0.0
 30
0.0
  0
VERTEX
  5
1DD
330
1DC
100
AcDbEntity
  8
预设值
100
AcDbVertex
100
AcDb2dVertex
 10
-8.487863037625175
 20
-12.41662505659077
 30
0.0
  0
VERTEX
  5
1DE
330
1DC
100
AcDbEntity
  8
预设值
100
AcDbVertex
100
AcDb2dVertex
 10
-21.48786303762517
 20
-12.41662505659077
 30
0.0
 42
-0.4142135623730944
  0
VERTEX
  5
1DF
330
1DC
100
AcDbEntity
  8
预设值
100
AcDbVertex
100
AcDb2dVertex
 10
-21.98786303762517
 20
-11.91662505659077
 30
0.0
  0
VERTEX
  5
1E0
330
1DC
100
AcDbEntity
  8
预设值
100
AcDbVertex
100
AcDb2dVertex
 10
-21.98786303762517
 20
1.082674943409216
 30
0.0
 42
-0.4142135623731117
  0
VERTEX
  5
1E1
330
1DC
100
AcDbEntity
  8
预设值
100
AcDbVertex
100
AcDb2dVertex
 10
-21.48786303762517
 20
1.582674943409245
 30
0.0
  0
VERTEX
  5
1E2
330
1DC
100
AcDbEntity
  8
预设值
100
AcDbVertex
100
AcDb2dVertex
 10
-8.487863037625175
 20
1.582674943409216
 30
0.0
 42
-0.4142135623730944
  0
VERTEX
  5
1E3
330
1DC
100
AcDbEntity
  8
预设值
100
AcDbVertex
100
AcDb2dVertex
 10
-7.987863037625175
 20
1.082674943409216
 30
0.0
  0
VERTEX
  5
1E4
330
1DC
100
AcDbEntity
  8
预设值
100
AcDbVertex
100
AcDb2dVertex
 10
-7.987863037625175
 20
-11.91662505659077
 30
0.0
 42
-0.414213562373095
  0
VERTEX
  5
1E5
330
1DC
100
AcDbEntity
  8
预设值
100
AcDbVertex
100
AcDb2dVertex
 10
-8.487863037625175
 20
-12.41662505659077
 30
0.0
  0
SEQEND
  5
1E6
330
1DC
100
AcDbEntity
  8
预设值
  0
POLYLINE
  5
1E7
330
1F
100
AcDbEntity
  8
预设值
100
AcDb2dPolyline
 66
     1
 10
0.0
 20
0.0
 30
0.0
  0
VERTEX
  5
1E8
330
1E7
100
AcDbEntity
  8
预设值
100
AcDbVertex
100
AcDb2dVertex
 10
134.3871369623748
 20
49.49607494340923
 30
0.0
  0
VERTEX
  5
1E9
330
1E7
100
AcDbEntity
  8
预设值
100
AcDbVertex
100
AcDb2dVertex
 10
121.3871369623748
 20
49.49607494340923
 30
0.0
 42
-0.414213562373095
  0
VERTEX
  5
1EA
330
1E7
100
AcDbEntity
  8
预设值
100
AcDbVertex
100
AcDb2dVertex
 10
120.8871369623748
 20
49.99607494340923
 30
0.0
  0
VERTEX
  5
1EB
330
1E7
100
AcDbEntity
  8
预设值
100
AcDbVertex
100
AcDb2dVertex
 10
120.8871369623748
 20
62.99507494340922
 30
0.0
 42
-0.414213562373095
  0
VERTEX
  5
1EC
330
1E7
100
AcDbEntity
  8
预设值
100
AcDbVertex
100
AcDb2dVertex
 10
121.3871369623748
 20
63.49507494340922
 30
0.0
  0
VERTEX
  5
1ED
330
1E7
100
AcDbEntity
  8
预设值
100
AcDbVertex
100
AcDb2dVertex
 10
134.3871369623748
 20
63.49507494340922
 30
0.0
 42
-0.414213562373095
  0
VERTEX
  5
1EE
330
1E7
100
AcDbEntity
  8
预设值
100
AcDbVertex
100
AcDb2dVertex
 10
134.8871369623748
 20
62.99507494340922
 30
0.0
  0
VERTEX
  5
1EF
330
1E7
100
AcDbEntity
  8
预设值
100
AcDbVertex
100
AcDb2dVertex
 10
134.8871369623748
 20
49.99607494340923
 30
0.0
 42
-0.414213562373095
  0
VERTEX
  5
1F0
330
1E7
100
AcDbEntity
  8
预设值
100
AcDbVertex
100
AcDb2dVertex
 10
134.3871369623748
 20
49.49607494340923
 30
0.0
  0
SEQEND
  5
1F1
330
1E7
100
AcDbEntity
  8
预设值
  0
POLYLINE
  5
1F2
330
1F
100
AcDbEntity
  8
预设值
100
AcDb2dPolyline
 66
     1
 10
0.0
 20
0.0
 30
0.0
  0
VERTEX
  5
1F3
330
1F2
100
AcDbEntity
  8
预设值
100
AcDbVertex
100
AcDb2dVertex
 10
29.61213696237473
 20
-12.41662505659077
 30
0.0
  0
VERTEX
  5
1F4
330
1F2
100
AcDbEntity
  8
预设值
100
AcDbVertex
100
AcDb2dVertex
 10
16.61213696237473
 20
-12.41662505659077
 30
0.0
 42
-0.4142135623730944
  0
VERTEX
  5
1F5
330
1F2
100
AcDbEntity
  8
预设值
100
AcDbVertex
100
AcDb2dVertex
 10
16.11213696237473
 20
-11.91662505659077
 30
0.0
  0
VERTEX
  5
1F6
330
1F2
100
AcDbEntity
  8
预设值
100
AcDbVertex
100
AcDb2dVertex
 10
16.11213696237473
 20
1.082674943409216
 30
0.0
 42
-0.4142135623730941
  0
VERTEX
  5
1F7
330
1F2
100
AcDbEntity
  8
预设值
100
AcDbVertex
100
AcDb2dVertex
 10
16.61213696237473
 20
1.582674943409216
 30
0.0
  0
VERTEX
  5
1F8
330
1F2
100
AcDbEntity
  8
预设值
100
AcDbVertex
100
AcDb2dVertex
 10
29.61213696237473
 20
1.582674943409216
 30
0.0
 42
-0.4142135623730938
  0
VERTEX
  5
1F9
330
1F2
100
AcDbEntity
  8
预设值
100
AcDbVertex
100
AcDb2dVertex
 10
30.11213696237473
 20
1.082674943409216
 30
0.0
  0
VERTEX
  5
1FA
330
1F2
100
AcDbEntity
  8
预设值
100
AcDbVertex
100
AcDb2dVertex
 10
30.11213696237473
 20
-11.91662505659077
 30
0.0
 42
-0.4142135623730935
  0
VERTEX
  5
1FB
330
1F2
100
AcDbEntity
  8
预设值
100
AcDbVertex
100
AcDb2dVertex
 10
29.61213696237473
 20
-12.41662505659077
 30
0.0
  0
SEQEND
  5
1FC
330
1F2
100
AcDbEntity
  8
预设值
  0
POLYLINE
  5
1FD
330
1F
100
AcDbEntity
  8
预设值
100
AcDb2dPolyline
 66
     1
 10
0.0
 20
0.0
 30
0.0
  0
VERTEX
  5
1FE
330
1FD
100
AcDbEntity
  8
预设值
100
AcDbVertex
100
AcDb2dVertex
 10
-70.40086303762519
 20
6.633374943409237
 30
0.0
  0
VERTEX
  5
1FF
330
1FD
100
AcDbEntity
  8
预设值
100
AcDbVertex
100
AcDb2dVertex
 10
-83.39986303762521
 20
6.633374943409244
 30
0.0
 42
-0.4142135623730912
  0
VERTEX
  5
200
330
1FD
100
AcDbEntity
  8
预设值
100
AcDbVertex
100
AcDb2dVertex
 10
-83.8998630376252
 20
7.13337494340923
 30
0.0
  0
VERTEX
  5
201
330
1FD
100
AcDbEntity
  8
预设值
100
AcDbVertex
100
AcDb2dVertex
 10
-83.89986303762521
 20
20.13267494340921
 30
0.0
 42
-0.4142135623730915
  0
VERTEX
  5
202
330
1FD
100
AcDbEntity
  8
预设值
100
AcDbVertex
100
AcDb2dVertex
 10
-83.39986303762521
 20
20.63267494340921
 30
0.0
  0
VERTEX
  5
203
330
1FD
100
AcDbEntity
  8
预设值
100
AcDbVertex
100
AcDb2dVertex
 10
-70.40086303762519
 20
20.63267494340921
 30
0.0
 42
-0.4142135623730799
  0
VERTEX
  5
204
330
1FD
100
AcDbEntity
  8
预设值
100
AcDbVertex
100
AcDb2dVertex
 10
-69.90086303762521
 20
20.13267494340923
 30
0.0
  0
VERTEX
  5
205
330
1FD
100
AcDbEntity
  8
预设值
100
AcDbVertex
100
AcDb2dVertex
 10
-69.90086303762519
 20
7.133374943409237
 30
0.0
 42
-0.4142135623730929
  0
VERTEX
  5
206
330
1FD
100
AcDbEntity
  8
预设值
100
AcDbVertex
100
AcDb2dVertex
 10
-70.40086303762519
 20
6.633374943409237
 30
0.0
  0
SEQEND
  5
207
330
1FD
100
AcDbEntity
  8
预设值
  0
POLYLINE
  5
208
330
1F
100
AcDbEntity
  8
预设值
100
AcDb2dPolyline
 66
     1
 10
0.0
 20
0.0
 30
0.0
  0
VERTEX
  5
209
330
208
100
AcDbEntity
  8
预设值
100
AcDbVertex
100
AcDb2dVertex
 10
-102.4498630376252
 20
6.633374943409237
 30
0.0
  0
VERTEX
  5
20A
330
208
100
AcDbEntity
  8
预设值
100
AcDbVertex
100
AcDb2dVertex
 10
-89.45086303762514
 20
6.63337494340923
 30
0.0
 42
0.4142135623731038
  0
VERTEX
  5
20B
330
208
100
AcDbEntity
  8
预设值
100
AcDbVertex
100
AcDb2dVertex
 10
-88.95086303762511
 20
7.133374943409244
 30
0.0
  0
VERTEX
  5
20C
330
208
100
AcDbEntity
  8
预设值
100
AcDbVertex
100
AcDb2dVertex
 10
-88.95086303762514
 20
20.13267494340921
 30
0.0
 42
0.4142135623731058
  0
VERTEX
  5
20D
330
208
100
AcDbEntity
  8
预设值
100
AcDbVertex
100
AcDb2dVertex
 10
-89.45086303762514
 20
20.63267494340923
 30
0.0
  0
VERTEX
  5
20E
330
208
100
AcDbEntity
  8
预设值
100
AcDbVertex
100
AcDb2dVertex
 10
-102.4498630376252
 20
20.63267494340921
 30
0.0
 42
0.4142135623730799
  0
VERTEX
  5
20F
330
208
100
AcDbEntity
  8
预设值
100
AcDbVertex
100
AcDb2dVertex
 10
-102.9498630376251
 20
20.13267494340923
 30
0.0
  0
VERTEX
  5
210
330
208
100
AcDbEntity
  8
预设值
100
AcDbVertex
100
AcDb2dVertex
 10
-102.9498630376252
 20
7.133374943409237
 30
0.0
 42
0.4142135623730929
  0
VERTEX
  5
211
330
208
100
AcDbEntity
  8
预设值
100
AcDbVertex
100
AcDb2dVertex
 10
-102.4498630376252
 20
6.633374943409237
 30
0.0
  0
SEQEND
  5
212
330
208
100
AcDbEntity
  8
预设值
  0
POLYLINE
  5
213
330
1F
100
AcDbEntity
  8
预设值
100
AcDb2dPolyline
 66
     1
 10
0.0
 20
0.0
 30
0.0
  0
VERTEX
  5
214
330
213
100
AcDbEntity
  8
预设值
100
AcDbVertex
100
AcDb2dVertex
 10
-98.97586303762523
 20
25.68337494340922
 30
0.0
  0
VERTEX
  5
215
330
213
100
AcDbEntity
  8
预设值
100
AcDbVertex
100
AcDb2dVertex
 10
-111.9765630376252
 20
25.68337494340922
 30
0.0
 42
-0.4142135623730965
  0
VERTEX
  5
216
330
213
100
AcDbEntity
  8
预设值
100
AcDbVertex
100
AcDb2dVertex
 10
-112.4765630376252
 20
26.18337494340922
 30
0.0
  0
VERTEX
  5
217
330
213
100
AcDbEntity
  8
预设值
100
AcDbVertex
100
AcDb2dVertex
 10
-112.4765630376252
 20
39.18267494340922
 30
0.0
 42
-0.414213562373095
  0
VERTEX
  5
218
330
213
100
AcDbEntity
  8
预设值
100
AcDbVertex
100
AcDb2dVertex
 10
-111.9765630376252
 20
39.68267494340922
 30
0.0
  0
VERTEX
  5
219
330
213
100
AcDbEntity
  8
预设值
100
AcDbVertex
100
AcDb2dVertex
 10
-98.97586303762523
 20
39.68267494340922
 30
0.0
 42
-0.414213562373095
  0
VERTEX
  5
21A
330
213
100
AcDbEntity
  8
预设值
100
AcDbVertex
100
AcDb2dVertex
 10
-98.47586303762523
 20
39.18267494340922
 30
0.0
  0
VERTEX
  5
21B
330
213
100
AcDbEntity
  8
预设值
100
AcDbVertex
100
AcDb2dVertex
 10
-98.47586303762523
 20
26.18337494340922
 30
0.0
 42
-0.4142135623730915
  0
VERTEX
  5
21C
330
213
100
AcDbEntity
  8
预设值
100
AcDbVertex
100
AcDb2dVertex
 10
-98.97586303762523
 20
25.68337494340922
 30
0.0
  0
SEQEND
  5
21D
330
213
100
AcDbEntity
  8
预设值
  0
POLYLINE
  5
21E
330
1F
100
AcDbEntity
  8
预设值
100
AcDb2dPolyline
 66
     1
 10
0.0
 20
0.0
 30
0.0
  0
VERTEX
  5
21F
330
21E
100
AcDbEntity
  8
预设值
100
AcDbVertex
100
AcDb2dVertex
 10
-146.6008630376252
 20
6.633374943409223
 30
0.0
  0
VERTEX
  5
220
330
21E
100
AcDbEntity
  8
预设值
100
AcDbVertex
100
AcDb2dVertex
 10
-159.6001630376252
 20
6.633374943409237
 30
0.0
 42
-0.4142135623730976
  0
VERTEX
  5
221
330
21E
100
AcDbEntity
  8
预设值
100
AcDbVertex
100
AcDb2dVertex
 10
-160.1001630376252
 20
7.133374943409237
 30
0.0
  0
VERTEX
  5
222
330
21E
100
AcDbEntity
  8
预设值
100
AcDbVertex
100
AcDb2dVertex
 10
-160.1001630376252
 20
20.13267494340923
 30
0.0
 42
-0.4142135623730868
  0
VERTEX
  5
223
330
21E
100
AcDbEntity
  8
预设值
100
AcDbVertex
100
AcDb2dVertex
 10
-159.6001630376252
 20
20.63267494340921
 30
0.0
  0
VERTEX
  5
224
330
21E
100
AcDbEntity
  8
预设值
100
AcDbVertex
100
AcDb2dVertex
 10
-146.6008630376252
 20
20.63267494340921
 30
0.0
 42
-0.414213562373094
  0
VERTEX
  5
225
330
21E
100
AcDbEntity
  8
预设值
100
AcDbVertex
100
AcDb2dVertex
 10
-146.1008630376253
 20
20.13267494340924
 30
0.0
  0
VERTEX
  5
226
330
21E
100
AcDbEntity
  8
预设值
100
AcDbVertex
100
AcDb2dVertex
 10
-146.1008630376252
 20
7.133374943409223
 30
0.0
 42
-0.4142135623730929
  0
VERTEX
  5
227
330
21E
100
AcDbEntity
  8
预设值
100
AcDbVertex
100
AcDb2dVertex
 10
-146.6008630376252
 20
6.633374943409223
 30
0.0
  0
SEQEND
  5
228
330
21E
100
AcDbEntity
  8
预设值
  0
POLYLINE
  5
229
330
1F
100
AcDbEntity
  8
预设值
100
AcDb2dPolyline
 66
     1
 10
0.0
 20
0.0
 30
0.0
  0
VERTEX
  5
22A
330
229
100
AcDbEntity
  8
预设值
100
AcDbVertex
100
AcDb2dVertex
 10
134.3871369623748
 20
6.633374943409237
 30
0.0
  0
VERTEX
  5
22B
330
229
100
AcDbEntity
  8
预设值
100
AcDbVertex
100
AcDb2dVertex
 10
121.3871369623748
 20
6.633374943409223
 30
0.0
 42
-0.4142135623730976
  0
VERTEX
  5
22C
330
229
100
AcDbEntity
  8
预设值
100
AcDbVertex
100
AcDb2dVertex
 10
120.8871369623748
 20
7.133374943409223
 30
0.0
  0
VERTEX
  5
22D
330
229
100
AcDbEntity
  8
预设值
100
AcDbVertex
100
AcDb2dVertex
 10
120.8871369623748
 20
20.13267494340921
 30
0.0
 42
-0.4142135623730915
  0
VERTEX
  5
22E
330
229
100
AcDbEntity
  8
预设值
100
AcDbVertex
100
AcDb2dVertex
 10
121.3871369623748
 20
20.63267494340921
 30
0.0
  0
VERTEX
  5
22F
330
229
100
AcDbEntity
  8
预设值
100
AcDbVertex
100
AcDb2dVertex
 10
134.3871369623748
 20
20.63267494340926
 30
0.0
 42
-0.4142135623730965
  0
VERTEX
  5
230
330
229
100
AcDbEntity
  8
预设值
100
AcDbVertex
100
AcDb2dVertex
 10
134.8871369623748
 20
20.13267494340926
 30
0.0
  0
VERTEX
  5
231
330
229
100
AcDbEntity
  8
预设值
100
AcDbVertex
100
AcDb2dVertex
 10
134.8871369623748
 20
7.133374943409237
 30
0.0
 42
-0.4142135623730929
  0
VERTEX
  5
232
330
229
100
AcDbEntity
  8
预设值
100
AcDbVertex
100
AcDb2dVertex
 10
134.3871369623748
 20
6.633374943409237
 30
0.0
  0
SEQEND
  5
233
330
229
100
AcDbEntity
  8
预设值
  0
POLYLINE
  5
234
330
1F
100
AcDbEntity
  8
预设值
100
AcDb2dPolyline
 66
     1
 10
0.0
 20
0.0
 30
0.0
  0
VERTEX
  5
235
330
234
100
AcDbEntity
  8
预设值
100
AcDbVertex
100
AcDb2dVertex
 10
-118.0258630376252
 20
49.49607494340921
 30
0.0
  0
VERTEX
  5
236
330
234
100
AcDbEntity
  8
预设值
100
AcDbVertex
100
AcDb2dVertex
 10
-131.0251630376251
 20
49.4960749434092
 30
0.0
 42
-0.4142135623730873
  0
VERTEX
  5
237
330
234
100
AcDbEntity
  8
预设值
100
AcDbVertex
100
AcDb2dVertex
 10
-131.5251630376252
 20
49.99607494340925
 30
0.0
  0
VERTEX
  5
238
330
234
100
AcDbEntity
  8
预设值
100
AcDbVertex
100
AcDb2dVertex
 10
-131.5251630376252
 20
62.99507494340919
 30
0.0
 42
-0.4142135623730351
  0
VERTEX
  5
239
330
234
100
AcDbEntity
  8
预设值
100
AcDbVertex
100
AcDb2dVertex
 10
-131.0251630376251
 20
63.49507494340922
 30
0.0
  0
VERTEX
  5
23A
330
234
100
AcDbEntity
  8
预设值
100
AcDbVertex
100
AcDb2dVertex
 10
-118.0258630376252
 20
63.49507494340921
 30
0.0
 42
-0.4142135623731039
  0
VERTEX
  5
23B
330
234
100
AcDbEntity
  8
预设值
100
AcDbVertex
100
AcDb2dVertex
 10
-117.5258630376252
 20
62.99507494340925
 30
0.0
  0
VERTEX
  5
23C
330
234
100
AcDbEntity
  8
预设值
100
AcDbVertex
100
AcDb2dVertex
 10
-117.5258630376252
 20
49.99607494340923
 30
0.0
 42
-0.414213562373107
  0
VERTEX
  5
23D
330
234
100
AcDbEntity
  8
预设值
100
AcDbVertex
100
AcDb2dVertex
 10
-118.0258630376252
 20
49.49607494340921
 30
0.0
  0
SEQEND
  5
23E
330
234
100
AcDbEntity
  8
预设值
  0
POLYLINE
  5
23F
330
1F
100
AcDbEntity
  8
预设值
100
AcDb2dPolyline
 66
     1
 10
0.0
 20
0.0
 30
0.0
  0
VERTEX
  5
240
330
23F
100
AcDbEntity
  8
预设值
100
AcDbVertex
100
AcDb2dVertex
 10
-156.1258630376252
 20
49.49607494340923
 30
0.0
  0
VERTEX
  5
241
330
23F
100
AcDbEntity
  8
预设值
100
AcDbVertex
100
AcDb2dVertex
 10
-169.1251630376253
 20
49.49607494340923
 30
0.0
 42
-0.414213562373095
  0
VERTEX
  5
242
330
23F
100
AcDbEntity
  8
预设值
100
AcDbVertex
100
AcDb2dVertex
 10
-169.6251630376253
 20
49.99607494340923
 30
0.0
  0
VERTEX
  5
243
330
23F
100
AcDbEntity
  8
预设值
100
AcDbVertex
100
AcDb2dVertex
 10
-169.6251630376253
 20
62.99507494340922
 30
0.0
 42
-0.414213562373095
  0
VERTEX
  5
244
330
23F
100
AcDbEntity
  8
预设值
100
AcDbVertex
100
AcDb2dVertex
 10
-169.1251630376253
 20
63.49507494340922
 30
0.0
  0
VERTEX
  5
245
330
23F
100
AcDbEntity
  8
预设值
100
AcDbVertex
100
AcDb2dVertex
 10
-156.1258630376252
 20
63.49507494340922
 30
0.0
 42
-0.414213562373095
  0
VERTEX
  5
246
330
23F
100
AcDbEntity
  8
预设值
100
AcDbVertex
100
AcDb2dVertex
 10
-155.6258630376252
 20
62.99507494340922
 30
0.0
  0
VERTEX
  5
247
330
23F
100
AcDbEntity
  8
预设值
100
AcDbVertex
100
AcDb2dVertex
 10
-155.6258630376252
 20
49.99607494340923
 30
0.0
 42
-0.414213562373095
  0
VERTEX
  5
248
330
23F
100
AcDbEntity
  8
预设值
100
AcDbVertex
100
AcDb2dVertex
 10
-156.1258630376252
 20
49.49607494340923
 30
0.0
  0
SEQEND
  5
249
330
23F
100
AcDbEntity
  8
预设值
  0
POLYLINE
  5
24A
330
1F
100
AcDbEntity
  8
预设值
100
AcDb2dPolyline
 66
     1
 10
0.0
 20
0.0
 30
0.0
  0
VERTEX
  5
24B
330
24A
100
AcDbEntity
  8
预设值
100
AcDbVertex
100
AcDb2dVertex
 10
-156.1258630376252
 20
25.68337494340922
 30
0.0
  0
VERTEX
  5
24C
330
24A
100
AcDbEntity
  8
预设值
100
AcDbVertex
100
AcDb2dVertex
 10
-169.1251630376253
 20
25.68337494340922
 30
0.0
 42
-0.4142135623730965
  0
VERTEX
  5
24D
330
24A
100
AcDbEntity
  8
预设值
100
AcDbVertex
100
AcDb2dVertex
 10
-169.6251630376253
 20
26.18337494340922
 30
0.0
  0
VERTEX
  5
24E
330
24A
100
AcDbEntity
  8
预设值
100
AcDbVertex
100
AcDb2dVertex
 10
-169.6251630376253
 20
39.18267494340922
 30
0.0
 42
-0.414213562373095
  0
VERTEX
  5
24F
330
24A
100
AcDbEntity
  8
预设值
100
AcDbVertex
100
AcDb2dVertex
 10
-169.1251630376253
 20
39.68267494340922
 30
0.0
  0
VERTEX
  5
250
330
24A
100
AcDbEntity
  8
预设值
100
AcDbVertex
100
AcDb2dVertex
 10
-156.1258630376252
 20
39.68267494340922
 30
0.0
 42
-0.414213562373095
  0
VERTEX
  5
251
330
24A
100
AcDbEntity
  8
预设值
100
AcDbVertex
100
AcDb2dVertex
 10
-155.6258630376252
 20
39.18267494340922
 30
0.0
  0
VERTEX
  5
252
330
24A
100
AcDbEntity
  8
预设值
100
AcDbVertex
100
AcDb2dVertex
 10
-155.6258630376252
 20
26.18337494340922
 30
0.0
 42
-0.4142135623730915
  0
VERTEX
  5
253
330
24A
100
AcDbEntity
  8
预设值
100
AcDbVertex
100
AcDb2dVertex
 10
-156.1258630376252
 20
25.68337494340922
 30
0.0
  0
SEQEND
  5
254
330
24A
100
AcDbEntity
  8
预设值
  0
POLYLINE
  5
255
330
1F
100
AcDbEntity
  8
预设值
100
AcDb2dPolyline
 66
     1
 10
0.0
 20
0.0
 30
0.0
  0
VERTEX
  5
256
330
255
100
AcDbEntity
  8
预设值
100
AcDbVertex
100
AcDb2dVertex
 10
-207.2252130376253
 20
25.68337494340922
 30
0.0
  0
VERTEX
  5
257
330
255
100
AcDbEntity
  8
预设值
100
AcDbVertex
100
AcDb2dVertex
 10
-194.2256630376253
 20
25.68337494340922
 30
0.0
 42
0.4142135623730965
  0
VERTEX
  5
258
330
255
100
AcDbEntity
  8
预设值
100
AcDbVertex
100
AcDb2dVertex
 10
-193.7256630376253
 20
26.18337494340922
 30
0.0
  0
VERTEX
  5
259
330
255
100
AcDbEntity
  8
预设值
100
AcDbVertex
100
AcDb2dVertex
 10
-193.7256630376253
 20
39.18267494340922
 30
0.0
 42
0.414213562373095
  0
VERTEX
  5
25A
330
255
100
AcDbEntity
  8
预设值
100
AcDbVertex
100
AcDb2dVertex
 10
-194.2256630376253
 20
39.68267494340922
 30
0.0
  0
VERTEX
  5
25B
330
255
100
AcDbEntity
  8
预设值
100
AcDbVertex
100
AcDb2dVertex
 10
-207.2252130376253
 20
39.68267494340922
 30
0.0
 42
0.414213562373095
  0
VERTEX
  5
25C
330
255
100
AcDbEntity
  8
预设值
100
AcDbVertex
100
AcDb2dVertex
 10
-207.7252130376253
 20
39.18267494340922
 30
0.0
  0
VERTEX
  5
25D
330
255
100
AcDbEntity
  8
预设值
100
AcDbVertex
100
AcDb2dVertex
 10
-207.7252130376253
 20
26.18337494340922
 30
0.0
 42
0.4142135623730915
  0
VERTEX
  5
25E
330
255
100
AcDbEntity
  8
预设值
100
AcDbVertex
100
AcDb2dVertex
 10
-207.2252130376253
 20
25.68337494340922
 30
0.0
  0
SEQEND
  5
25F
330
255
100
AcDbEntity
  8
预设值
  0
POLYLINE
  5
260
330
1F
100
AcDbEntity
  8
预设值
100
AcDb2dPolyline
 66
     1
 10
0.0
 20
0.0
 30
0.0
  0
VERTEX
  5
261
330
260
100
AcDbEntity
  8
预设值
100
AcDbVertex
100
AcDb2dVertex
 10
-194.2262130376253
 20
49.49607494340923
 30
0.0
  0
VERTEX
  5
262
330
260
100
AcDbEntity
  8
预设值
100
AcDbVertex
100
AcDb2dVertex
 10
-207.2252130376253
 20
49.49607494340923
 30
0.0
 42
-0.414213562373095
  0
VERTEX
  5
263
330
260
100
AcDbEntity
  8
预设值
100
AcDbVertex
100
AcDb2dVertex
 10
-207.7252130376253
 20
49.99607494340923
 30
0.0
  0
VERTEX
  5
264
330
260
100
AcDbEntity
  8
预设值
100
AcDbVertex
100
AcDb2dVertex
 10
-207.7252130376253
 20
62.99507494340922
 30
0.0
 42
-0.414213562373095
  0
VERTEX
  5
265
330
260
100
AcDbEntity
  8
预设值
100
AcDbVertex
100
AcDb2dVertex
 10
-207.2252130376253
 20
63.49507494340922
 30
0.0
  0
VERTEX
  5
266
330
260
100
AcDbEntity
  8
预设值
100
AcDbVertex
100
AcDb2dVertex
 10
-194.2262130376253
 20
63.49507494340922
 30
0.0
 42
-0.414213562373095
  0
VERTEX
  5
267
330
260
100
AcDbEntity
  8
预设值
100
AcDbVertex
100
AcDb2dVertex
 10
-193.7262130376253
 20
62.99507494340922
 30
0.0
  0
VERTEX
  5
268
330
260
100
AcDbEntity
  8
预设值
100
AcDbVertex
100
AcDb2dVertex
 10
-193.7262130376253
 20
49.99607494340923
 30
0.0
 42
-0.414213562373095
  0
VERTEX
  5
269
330
260
100
AcDbEntity
  8
预设值
100
AcDbVertex
100
AcDb2dVertex
 10
-194.2262130376253
 20
49.49607494340923
 30
0.0
  0
SEQEND
  5
26A
330
260
100
AcDbEntity
  8
预设值
  0
POLYLINE
  5
26B
330
1F
100
AcDbEntity
  8
预设值
100
AcDb2dPolyline
 66
     1
 10
0.0
 20
0.0
 30
0.0
  0
VERTEX
  5
26C
330
26B
100
AcDbEntity
  8
预设值
100
AcDbVertex
100
AcDb2dVertex
 10
-18.01286303762527
 20
-31.46662505659076
 30
0.0
  0
VERTEX
  5
26D
330
26B
100
AcDbEntity
  8
预设值
100
AcDbVertex
100
AcDb2dVertex
 10
-31.01286303762527
 20
-31.46662505659077
 30
0.0
 42
-0.4142135623730929
  0
VERTEX
  5
26E
330
26B
100
AcDbEntity
  8
预设值
100
AcDbVertex
100
AcDb2dVertex
 10
-31.51286303762527
 20
-30.96662505659077
 30
0.0
  0
VERTEX
  5
26F
330
26B
100
AcDbEntity
  8
预设值
100
AcDbVertex
100
AcDb2dVertex
 10
-31.51286303762527
 20
-17.9673250565908
 30
0.0
 42
-0.4142135623730823
  0
VERTEX
  5
270
330
26B
100
AcDbEntity
  8
预设值
100
AcDbVertex
100
AcDb2dVertex
 10
-30.81286303762522
 20
-17.26732505659078
 30
0.0
  0
VERTEX
  5
271
330
26B
100
AcDbEntity
  8
预设值
100
AcDbVertex
100
AcDb2dVertex
 10
-18.01286303762515
 20
-17.26732505659078
 30
0.0
 42
-0.4142135623730587
  0
VERTEX
  5
272
330
26B
100
AcDbEntity
  8
预设值
100
AcDbVertex
100
AcDb2dVertex
 10
-17.31286303762529
 20
-17.96732505659078
 30
0.0
  0
VERTEX
  5
273
330
26B
100
AcDbEntity
  8
预设值
100
AcDbVertex
100
AcDb2dVertex
 10
-17.31286303762522
 20
-30.76662505659078
 30
0.0
 42
-0.4142135623730717
  0
VERTEX
  5
274
330
26B
100
AcDbEntity
  8
预设值
100
AcDbVertex
100
AcDb2dVertex
 10
-18.01286303762527
 20
-31.46662505659076
 30
0.0
  0
SEQEND
  5
275
330
26B
100
AcDbEntity
  8
预设值
  0
CIRCLE
  5
276
330
1F
100
AcDbEntity
  8
预设值
100
AcDbCircle
 10
-109.7252130376252
 20
-56.01665505659076
 30
0.0
 40
1.100000000000009
  0
CIRCLE
  5
277
330
1F
100
AcDbEntity
  8
预设值
100
AcDbCircle
 10
36.88713696237483
 20
-56.01665505659075
 30
0.0
 40
1.100000000000023
  0
POLYLINE
  5
278
330
1F
100
AcDbEntity
  8
预设值
100
AcDb2dPolyline
 66
     1
 10
0.0
 20
0.0
 30
0.0
  0
VERTEX
  5
279
330
278
100
AcDbEntity
  8
预设值
100
AcDbVertex
100
AcDb2dVertex
 10
-36.86286303762517
 20
-31.66662505659076
 30
0.0
  0
VERTEX
  5
27A
330
278
100
AcDbEntity
  8
预设值
100
AcDbVertex
100
AcDb2dVertex
 10
-49.86286303762517
 20
-31.66662505659077
 30
0.0
 42
-0.4142135623730928
  0
VERTEX
  5
27B
330
278
100
AcDbEntity
  8
预设值
100
AcDbVertex
100
AcDb2dVertex
 10
-50.56286303762516
 20
-30.96662505659078
 30
0.0
  0
VERTEX
  5
27C
330
278
100
AcDbEntity
  8
预设值
100
AcDbVertex
100
AcDb2dVertex
 10
-50.56286303762522
 20
-17.96732505659077
 30
0.0
 42
-0.4142135623730728
  0
VERTEX
  5
27D
330
278
100
AcDbEntity
  8
预设值
100
AcDbVertex
100
AcDb2dVertex
 10
-49.86286303762517
 20
-17.26732505659078
 30
0.0
  0
VERTEX
  5
27E
330
278
100
AcDbEntity
  8
预设值
100
AcDbVertex
100
AcDb2dVertex
 10
-36.86286303762517
 20
-17.26732505659077
 30
0.0
 42
-0.414213562373095
  0
VERTEX
  5
27F
330
278
100
AcDbEntity
  8
预设值
100
AcDbVertex
100
AcDb2dVertex
 10
-36.16286303762518
 20
-17.96732505659077
 30
0.0
  0
VERTEX
  5
280
330
278
100
AcDbEntity
  8
预设值
100
AcDbVertex
100
AcDb2dVertex
 10
-36.16286303762513
 20
-30.96662505659077
 30
0.0
 42
-0.4142135623730728
  0
VERTEX
  5
281
330
278
100
AcDbEntity
  8
预设值
100
AcDbVertex
100
AcDb2dVertex
 10
-36.86286303762517
 20
-31.66662505659076
 30
0.0
  0
SEQEND
  5
282
330
278
100
AcDbEntity
  8
预设值
  0
POLYLINE
  5
283
330
1F
100
AcDbEntity
  8
预设值
100
AcDb2dPolyline
 66
     1
 10
0.0
 20
0.0
 30
0.0
  0
VERTEX
  5
284
330
283
100
AcDbEntity
  8
预设值
100
AcDbVertex
100
AcDb2dVertex
 10
-112.6832529291751
 20
-54.51665505659077
 30
0.0
  0
VERTEX
  5
285
330
283
100
AcDbEntity
  8
预设值
100
AcDbVertex
100
AcDb2dVertex
 10
-186.7671731460754
 20
-54.51665505659076
 30
0.0
 42
0.4641530866874385
  0
VERTEX
  5
286
330
283
100
AcDbEntity
  8
预设值
100
AcDbVertex
100
AcDb2dVertex
 10
-187.7531864432587
 20
-55.68332172325744
 30
0.0
 42
-1.183215956619892
  0
VERTEX
  5
287
330
283
100
AcDbEntity
  8
预设值
100
AcDbVertex
100
AcDb2dVertex
 10
-191.6972396319917
 20
-55.68332172325744
 30
0.0
 42
0.4641530866874436
  0
VERTEX
  5
288
330
283
100
AcDbEntity
  8
预设值
100
AcDbVertex
100
AcDb2dVertex
 10
-192.6832529291751
 20
-54.51665505659081
 30
0.0
  0
VERTEX
  5
289
330
283
100
AcDbEntity
  8
预设值
100
AcDbVertex
100
AcDb2dVertex
 10
-197.8967859128791
 20
-54.51665505659078
 30
0.0
 42
0.7071067811865422
  0
VERTEX
  5
28A
330
283
100
AcDbEntity
  8
预设值
100
AcDbVertex
100
AcDb2dVertex
 10
-203.5536401623715
 20
-54.51665505659077
 30
0.0
  0
VERTEX
  5
28B
330
283
100
AcDbEntity
  8
预设值
100
AcDbVertex
100
AcDb2dVertex
 10
-209.7252130376252
 20
-54.51665505659078
 30
0.0
 42
-0.414213562373098
  0
VERTEX
  5
28C
330
283
100
AcDbEntity
  8
预设值
100
AcDbVertex
100
AcDb2dVertex
 10
-211.7252130376252
 20
-52.51665505659078
 30
0.0
  0
VERTEX
  5
28D
330
283
100
AcDbEntity
  8
预设值
100
AcDbVertex
100
AcDb2dVertex
 10
-211.7252130376253
 20
65.49507494340922
 30
0.0
 42
-0.4142135623730926
  0
VERTEX
  5
28E
330
283
100
AcDbEntity
  8
预设值
100
AcDbVertex
100
AcDb2dVertex
 10
-209.7252130376253
 20
67.49507494340922
 30
0.0
  0
VERTEX
  5
28F
330
283
100
AcDbEntity
  8
预设值
100
AcDbVertex
100
AcDb2dVertex
 10
-192.6832529291751
 20
67.49507494340924
 30
0.0
 42
0.4641530866874577
  0
VERTEX
  5
290
330
283
100
AcDbEntity
  8
预设值
100
AcDbVertex
100
AcDb2dVertex
 10
-191.6972396319918
 20
68.6617416100759
 30
0.0
 42
-1.18321595661979
  0
VERTEX
  5
291
330
283
100
AcDbEntity
  8
预设值
100
AcDbVertex
100
AcDb2dVertex
 10
-187.7531864432586
 20
68.6617416100759
 30
0.0
 42
0.4641530866874553
  0
VERTEX
  5
292
330
283
100
AcDbEntity
  8
预设值
100
AcDbVertex
100
AcDb2dVertex
 10
-186.7671731460754
 20
67.49507494340922
 30
0.0
  0
VERTEX
  5
293
330
283
100
AcDbEntity
  8
预设值
100
AcDbVertex
100
AcDb2dVertex
 10
-112.6832529291751
 20
67.49507494340921
 30
0.0
 42
0.46415308668743
  0
VERTEX
  5
294
330
283
100
AcDbEntity
  8
预设值
100
AcDbVertex
100
AcDb2dVertex
 10
-111.6972396319917
 20
68.66174161007591
 30
0.0
 42
-1.183215956619971
  0
VERTEX
  5
295
330
283
100
AcDbEntity
  8
预设值
100
AcDbVertex
100
AcDb2dVertex
 10
-107.7531864432588
 20
68.66174161007591
 30
0.0
 42
0.4641530866874085
  0
VERTEX
  5
296
330
283
100
AcDbEntity
  8
预设值
100
AcDbVertex
100
AcDb2dVertex
 10
-106.7671731460754
 20
67.49507494340924
 30
0.0
  0
VERTEX
  5
297
330
283
100
AcDbEntity
  8
预设值
100
AcDbVertex
100
AcDb2dVertex
 10
33.92909707082504
 20
67.4950749434092
 30
0.0
 42
0.4641530866874314
  0
VERTEX
  5
298
330
283
100
AcDbEntity
  8
预设值
100
AcDbVertex
100
AcDb2dVertex
 10
34.91511036800834
 20
68.66174161007591
 30
0.0
 42
-1.183215956619729
  0
VERTEX
  5
299
330
283
100
AcDbEntity
  8
预设值
100
AcDbVertex
100
AcDb2dVertex
 10
38.85916355674138
 20
68.66174161007588
 30
0.0
 42
0.4641530866874473
  0
VERTEX
  5
29A
330
283
100
AcDbEntity
  8
预设值
100
AcDbVertex
100
AcDb2dVertex
 10
39.84517685392461
 20
67.49507494340922
 30
0.0
  0
VERTEX
  5
29B
330
283
100
AcDbEntity
  8
预设值
100
AcDbVertex
100
AcDb2dVertex
 10
113.929097070825
 20
67.49507494340922
 30
0.0
 42
0.4641530866874346
  0
VERTEX
  5
29C
330
283
100
AcDbEntity
  8
预设值
100
AcDbVertex
100
AcDb2dVertex
 10
114.9151103680083
 20
68.66174161007588
 30
0.0
 42
-1.183215956619769
  0
VERTEX
  5
29D
330
283
100
AcDbEntity
  8
预设值
100
AcDbVertex
100
AcDb2dVertex
 10
118.8591635567415
 20
68.66174161007588
 30
0.0
 42
0.4641530866874666
  0
VERTEX
  5
29E
330
283
100
AcDbEntity
  8
预设值
100
AcDbVertex
100
AcDb2dVertex
 10
119.8451768539246
 20
67.49507494340925
 30
0.0
  0
VERTEX
  5
29F
330
283
100
AcDbEntity
  8
预设值
100
AcDbVertex
100
AcDb2dVertex
 10
136.8871369623748
 20
67.49507494340922
 30
0.0
 42
-0.4142135623730995
  0
VERTEX
  5
2A0
330
283
100
AcDbEntity
  8
预设值
100
AcDbVertex
100
AcDb2dVertex
 10
138.8871369623748
 20
65.49507494340922
 30
0.0
  0
VERTEX
  5
2A1
330
283
100
AcDbEntity
  8
预设值
100
AcDbVertex
100
AcDb2dVertex
 10
138.8871369623748
 20
-52.51665505659077
 30
0.0
 42
-0.4142135623730647
  0
VERTEX
  5
2A2
330
283
100
AcDbEntity
  8
预设值
100
AcDbVertex
100
AcDb2dVertex
 10
136.8871369623748
 20
-54.51665505659077
 30
0.0
  0
VERTEX
  5
2A3
330
283
100
AcDbEntity
  8
预设值
100
AcDbVertex
100
AcDb2dVertex
 10
130.715564087121
 20
-54.51665505659078
 30
0.0
 42
0.7071067811865506
  0
VERTEX
  5
2A4
330
283
100
AcDbEntity
  8
预设值
100
AcDbVertex
100
AcDb2dVertex
 10
125.0587098376287
 20
-54.51665505659077
 30
0.0
  0
VERTEX
  5
2A5
330
283
100
AcDbEntity
  8
预设值
100
AcDbVertex
100
AcDb2dVertex
 10
119.8451768539246
 20
-54.51665505659082
 30
0.0
 42
0.4641530866874339
  0
VERTEX
  5
2A6
330
283
100
AcDbEntity
  8
预设值
100
AcDbVertex
100
AcDb2dVertex
 10
118.8591635567414
 20
-55.68332172325744
 30
0.0
 42
-1.183215956620322
  0
VERTEX
  5
2A7
330
283
100
AcDbEntity
  8
预设值
100
AcDbVertex
100
AcDb2dVertex
 10
114.9151103680082
 20
-55.68332172325744
 30
0.0
 42
0.4641530866878573
  0
VERTEX
  5
2A8
330
283
100
AcDbEntity
  8
预设值
100
AcDbVertex
100
AcDb2dVertex
 10
113.929097070825
 20
-54.51665505659076
 30
0.0
  0
VERTEX
  5
2A9
330
283
100
AcDbEntity
  8
预设值
100
AcDbVertex
100
AcDb2dVertex
 10
39.84517685392461
 20
-54.5166550565908
 30
0.0
 42
0.4641530866874325
  0
VERTEX
  5
2AA
330
283
100
AcDbEntity
  8
预设值
100
AcDbVertex
100
AcDb2dVertex
 10
38.85916355674138
 20
-55.68332172325744
 30
0.0
 42
-1.183215956619923
  0
VERTEX
  5
2AB
330
283
100
AcDbEntity
  8
预设值
100
AcDbVertex
100
AcDb2dVertex
 10
34.91511036800836
 20
-55.68332172325744
 30
0.0
 42
0.4641530866872314
  0
VERTEX
  5
2AC
330
283
100
AcDbEntity
  8
预设值
100
AcDbVertex
100
AcDb2dVertex
 10
33.92909707082504
 20
-54.51665505659077
 30
0.0
  0
VERTEX
  5
2AD
330
283
100
AcDbEntity
  8
预设值
100
AcDbVertex
100
AcDb2dVertex
 10
20.71556408712104
 20
-54.51665505659077
 30
0.0
 42
0.7071067811865406
  0
VERTEX
  5
2AE
330
283
100
AcDbEntity
  8
预设值
100
AcDbVertex
100
AcDb2dVertex
 10
15.05870983762864
 20
-54.51665505659078
 30
0.0
  0
VERTEX
  5
2AF
330
283
100
AcDbEntity
  8
预设值
100
AcDbVertex
100
AcDb2dVertex
 10
-87.89678591287908
 20
-54.51665505659078
 30
0.0
 42
0.7071067811865474
  0
VERTEX
  5
2B0
330
283
100
AcDbEntity
  8
预设值
100
AcDbVertex
100
AcDb2dVertex
 10
-93.55364016237137
 20
-54.51665505659079
 30
0.0
  0
VERTEX
  5
2B1
330
283
100
AcDbEntity
  8
预设值
100
AcDbVertex
100
AcDb2dVertex
 10
-106.7671731460754
 20
-54.5166550565908
 30
0.0
 42
0.4641530866874276
  0
VERTEX
  5
2B2
330
283
100
AcDbEntity
  8
预设值
100
AcDbVertex
100
AcDb2dVertex
 10
-107.7531864432586
 20
-55.68332172325744
 30
0.0
 42
-1.183215956619907
  0
VERTEX
  5
2B3
330
283
100
AcDbEntity
  8
预设值
100
AcDbVertex
100
AcDb2dVertex
 10
-111.6972396319917
 20
-55.68332172325744
 30
0.0
 42
0.4641530866874787
  0
VERTEX
  5
2B4
330
283
100
AcDbEntity
  8
预设值
100
AcDbVertex
100
AcDb2dVertex
 10
-112.6832529291751
 20
-54.51665505659075
 30
0.0
  0
SEQEND
  5
2B5
330
283
100
AcDbEntity
  8
预设值
  0
POLYLINE
  5
2B6
330
1F
100
AcDbEntity
  8
预设值
100
AcDb2dPolyline
 66
     1
 10
0.0
 20
0.0
 30
0.0
  0
VERTEX
  5
2B7
330
2B6
100
AcDbEntity
  8
预设值
100
AcDbVertex
100
AcDb2dVertex
 10
96.2871369623748
 20
49.49607494340927
 30
0.0
  0
VERTEX
  5
2B8
330
2B6
100
AcDbEntity
  8
预设值
100
AcDbVertex
100
AcDb2dVertex
 10
83.28713696237469
 20
49.49607494340925
 30
0.0
 42
-0.414213562373095
  0
VERTEX
  5
2B9
330
2B6
100
AcDbEntity
  8
预设值
100
AcDbVertex
100
AcDb2dVertex
 10
82.78713696237469
 20
49.99607494340925
 30
0.0
  0
VERTEX
  5
2BA
330
2B6
100
AcDbEntity
  8
预设值
100
AcDbVertex
100
AcDb2dVertex
 10
82.7871369623748
 20
62.99507494340924
 30
0.0
 42
-0.4142135623731358
  0
VERTEX
  5
2BB
330
2B6
100
AcDbEntity
  8
预设值
100
AcDbVertex
100
AcDb2dVertex
 10
83.28713696237469
 20
63.49507494340919
 30
0.0
  0
VERTEX
  5
2BC
330
2B6
100
AcDbEntity
  8
预设值
100
AcDbVertex
100
AcDb2dVertex
 10
96.28713696237469
 20
63.49507494340919
 30
0.0
 42
-0.414213562373095
  0
VERTEX
  5
2BD
330
2B6
100
AcDbEntity
  8
预设值
100
AcDbVertex
100
AcDb2dVertex
 10
96.78713696237469
 20
62.99507494340919
 30
0.0
  0
VERTEX
  5
2BE
330
2B6
100
AcDbEntity
  8
预设值
100
AcDbVertex
100
AcDb2dVertex
 10
96.78713696237469
 20
49.9960749434092
 30
0.0
 42
-0.414213562373095
  0
VERTEX
  5
2BF
330
2B6
100
AcDbEntity
  8
预设值
100
AcDbVertex
100
AcDb2dVertex
 10
96.28713696237469
 20
49.4960749434092
 30
0.0
  0
SEQEND
  5
2C0
330
2B6
100
AcDbEntity
  8
预设值
  0
POLYLINE
  5
2C1
330
1F
100
AcDbEntity
  8
预设值
100
AcDb2dPolyline
 66
     1
 10
0.0
 20
0.0
 30
0.0
  0
VERTEX
  5
2C2
330
2C1
100
AcDbEntity
  8
预设值
100
AcDbVertex
100
AcDb2dVertex
 10
-113.0633630376252
 20
-31.66662505659078
 30
0.0
  0
VERTEX
  5
2C3
330
2C1
100
AcDbEntity
  8
预设值
100
AcDbVertex
100
AcDb2dVertex
 10
-126.0626630376253
 20
-31.66662505659075
 30
0.0
 42
-0.4142135623731062
  0
VERTEX
  5
2C4
330
2C1
100
AcDbEntity
  8
预设值
100
AcDbVertex
100
AcDb2dVertex
 10
-126.7626630376253
 20
-30.96662505659076
 30
0.0
  0
VERTEX
  5
2C5
330
2C1
100
AcDbEntity
  8
预设值
100
AcDbVertex
100
AcDb2dVertex
 10
-126.7626630376252
 20
-17.96732505659078
 30
0.0
 42
-0.4142135623731174
  0
VERTEX
  5
2C6
330
2C1
100
AcDbEntity
  8
预设值
100
AcDbVertex
100
AcDb2dVertex
 10
-126.0626630376253
 20
-17.26732505659079
 30
0.0
  0
VERTEX
  5
2C7
330
2C1
100
AcDbEntity
  8
预设值
100
AcDbVertex
100
AcDb2dVertex
 10
-113.0633630376252
 20
-17.26732505659075
 30
0.0
 42
-0.4142135623730941
  0
VERTEX
  5
2C8
330
2C1
100
AcDbEntity
  8
预设值
100
AcDbVertex
100
AcDb2dVertex
 10
-112.3633630376252
 20
-17.96732505659077
 30
0.0
  0
VERTEX
  5
2C9
330
2C1
100
AcDbEntity
  8
预设值
100
AcDbVertex
100
AcDb2dVertex
 10
-112.3633630376253
 20
-30.96662505659078
 30
0.0
 42
-0.4142135623731234
  0
VERTEX
  5
2CA
330
2C1
100
AcDbEntity
  8
预设值
100
AcDbVertex
100
AcDb2dVertex
 10
-113.0633630376252
 20
-31.66662505659078
 30
0.0
  0
SEQEND
  5
2CB
330
2C1
100
AcDbEntity
  8
预设值
  0
POLYLINE
  5
2CC
330
1F
100
AcDbEntity
  8
预设值
100
AcDb2dPolyline
 66
     1
 10
0.0
 20
0.0
 30
0.0
  0
VERTEX
  5
2CD
330
2CC
100
AcDbEntity
  8
预设值
100
AcDbVertex
100
AcDb2dVertex
 10
-74.9628630376252
 20
-31.66662505659076
 30
0.0
  0
VERTEX
  5
2CE
330
2CC
100
AcDbEntity
  8
预设值
100
AcDbVertex
100
AcDb2dVertex
 10
-87.9628630376252
 20
-31.66662505659077
 30
0.0
 42
-0.4142135623730941
  0
VERTEX
  5
2CF
330
2CC
100
AcDbEntity
  8
预设值
100
AcDbVertex
100
AcDb2dVertex
 10
-88.66286303762521
 20
-30.96662505659076
 30
0.0
  0
VERTEX
  5
2D0
330
2CC
100
AcDbEntity
  8
预设值
100
AcDbVertex
100
AcDb2dVertex
 10
-88.66286303762513
 20
-17.96732505659075
 30
0.0
 42
-0.4142135623731072
  0
VERTEX
  5
2D1
330
2CC
100
AcDbEntity
  8
预设值
100
AcDbVertex
100
AcDb2dVertex
 10
-87.9628630376252
 20
-17.26732505659078
 30
0.0
  0
VERTEX
  5
2D2
330
2CC
100
AcDbEntity
  8
预设值
100
AcDbVertex
100
AcDb2dVertex
 10
-74.9628630376252
 20
-17.26732505659076
 30
0.0
 42
-0.4142135623731044
  0
VERTEX
  5
2D3
330
2CC
100
AcDbEntity
  8
预设值
100
AcDbVertex
100
AcDb2dVertex
 10
-74.26286303762521
 20
-17.96732505659074
 30
0.0
  0
VERTEX
  5
2D4
330
2CC
100
AcDbEntity
  8
预设值
100
AcDbVertex
100
AcDb2dVertex
 10
-74.26286303762527
 20
-30.96662505659077
 30
0.0
 42
-0.4142135623731174
  0
VERTEX
  5
2D5
330
2CC
100
AcDbEntity
  8
预设值
100
AcDbVertex
100
AcDb2dVertex
 10
-74.9628630376252
 20
-31.66662505659076
 30
0.0
  0
SEQEND
  5
2D6
330
2CC
100
AcDbEntity
  8
预设值
  0
POLYLINE
  5
2D7
330
1F
100
AcDbEntity
  8
预设值
100
AcDb2dPolyline
 66
     1
 10
0.0
 20
0.0
 30
0.0
  0
VERTEX
  5
2D8
330
2D7
100
AcDbEntity
  8
预设值
100
AcDbVertex
100
AcDb2dVertex
 10
134.1871369623748
 20
-50.51665505659077
 30
0.0
  0
VERTEX
  5
2D9
330
2D7
100
AcDbEntity
  8
预设值
100
AcDbVertex
100
AcDb2dVertex
 10
121.5871369623749
 20
-50.51665505659079
 30
0.0
 42
-0.4142135623730895
  0
VERTEX
  5
2DA
330
2D7
100
AcDbEntity
  8
预设值
100
AcDbVertex
100
AcDb2dVertex
 10
120.8871369623749
 20
-49.81665505659075
 30
0.0
  0
VERTEX
  5
2DB
330
2D7
100
AcDbEntity
  8
预设值
100
AcDbVertex
100
AcDb2dVertex
 10
120.8871369623748
 20
-37.21712505659077
 30
0.0
 42
-0.4142135623730949
  0
VERTEX
  5
2DC
330
2D7
100
AcDbEntity
  8
预设值
100
AcDbVertex
100
AcDb2dVertex
 10
121.5871369623748
 20
-36.51712505659084
 30
0.0
  0
VERTEX
  5
2DD
330
2D7
100
AcDbEntity
  8
预设值
100
AcDbVertex
100
AcDb2dVertex
 10
134.1871369623748
 20
-36.51712505659071
 30
0.0
 42
-0.4142135623731014
  0
VERTEX
  5
2DE
330
2D7
100
AcDbEntity
  8
预设值
100
AcDbVertex
100
AcDb2dVertex
 10
134.8871369623748
 20
-37.21712505659087
 30
0.0
  0
VERTEX
  5
2DF
330
2D7
100
AcDbEntity
  8
预设值
100
AcDbVertex
100
AcDb2dVertex
 10
134.8871369623749
 20
-49.81665505659075
 30
0.0
 42
-0.41421356237309
  0
VERTEX
  5
2E0
330
2D7
100
AcDbEntity
  8
预设值
100
AcDbVertex
100
AcDb2dVertex
 10
134.1871369623748
 20
-50.51665505659079
 30
0.0
  0
SEQEND
  5
2E1
330
2D7
100
AcDbEntity
  8
预设值
  0
POLYLINE
  5
2E2
330
1F
100
AcDbEntity
  8
预设值
100
AcDb2dPolyline
 66
     1
 10
0.0
 20
0.0
 30
0.0
  0
VERTEX
  5
2E3
330
2E2
100
AcDbEntity
  8
预设值
100
AcDbVertex
100
AcDb2dVertex
 10
-121.5001630376253
 20
6.633374943409237
 30
0.0
  0
VERTEX
  5
2E4
330
2E2
100
AcDbEntity
  8
预设值
100
AcDbVertex
100
AcDb2dVertex
 10
-108.5008630376252
 20
6.63337494340923
 30
0.0
 42
0.4142135623731038
  0
VERTEX
  5
2E5
330
2E2
100
AcDbEntity
  8
预设值
100
AcDbVertex
100
AcDb2dVertex
 10
-108.0008630376252
 20
7.133374943409244
 30
0.0
  0
VERTEX
  5
2E6
330
2E2
100
AcDbEntity
  8
预设值
100
AcDbVertex
100
AcDb2dVertex
 10
-108.0008630376252
 20
20.13267494340921
 30
0.0
 42
0.4142135623731058
  0
VERTEX
  5
2E7
330
2E2
100
AcDbEntity
  8
预设值
100
AcDbVertex
100
AcDb2dVertex
 10
-108.5008630376252
 20
20.63267494340923
 30
0.0
  0
VERTEX
  5
2E8
330
2E2
100
AcDbEntity
  8
预设值
100
AcDbVertex
100
AcDb2dVertex
 10
-121.5001630376253
 20
20.63267494340921
 30
0.0
 42
0.4142135623730965
  0
VERTEX
  5
2E9
330
2E2
100
AcDbEntity
  8
预设值
100
AcDbVertex
100
AcDb2dVertex
 10
-122.0001630376253
 20
20.13267494340921
 30
0.0
  0
VERTEX
  5
2EA
330
2E2
100
AcDbEntity
  8
预设值
100
AcDbVertex
100
AcDb2dVertex
 10
-122.0001630376253
 20
7.133374943409237
 30
0.0
 42
0.4142135623730929
  0
VERTEX
  5
2EB
330
2E2
100
AcDbEntity
  8
预设值
100
AcDbVertex
100
AcDb2dVertex
 10
-121.5001630376253
 20
6.633374943409237
 30
0.0
  0
SEQEND
  5
2EC
330
2E2
100
AcDbEntity
  8
预设值
  0
POLYLINE
  5
2ED
330
1F
100
AcDbEntity
  8
预设值
100
AcDb2dPolyline
 66
     1
 10
0.0
 20
0.0
 30
0.0
  0
VERTEX
  5
2EE
330
2ED
100
AcDbEntity
  8
预设值
100
AcDbVertex
100
AcDb2dVertex
 10
-151.1633630376252
 20
-31.66662505659077
 30
0.0
  0
VERTEX
  5
2EF
330
2ED
100
AcDbEntity
  8
预设值
100
AcDbVertex
100
AcDb2dVertex
 10
-164.1626630376252
 20
-31.66662505659077
 30
0.0
 42
-0.4142135623730905
  0
VERTEX
  5
2F0
330
2ED
100
AcDbEntity
  8
预设值
100
AcDbVertex
100
AcDb2dVertex
 10
-164.8626630376252
 20
-30.96662505659076
 30
0.0
  0
VERTEX
  5
2F1
330
2ED
100
AcDbEntity
  8
预设值
100
AcDbVertex
100
AcDb2dVertex
 10
-164.8626630376252
 20
-17.96732505659078
 30
0.0
 42
-0.4142135623730677
  0
VERTEX
  5
2F2
330
2ED
100
AcDbEntity
  8
预设值
100
AcDbVertex
100
AcDb2dVertex
 10
-164.1626630376252
 20
-17.26732505659078
 30
0.0
  0
VERTEX
  5
2F3
330
2ED
100
AcDbEntity
  8
预设值
100
AcDbVertex
100
AcDb2dVertex
 10
-151.1633630376252
 20
-17.26732505659078
 30
0.0
 42
-0.4142135623730866
  0
VERTEX
  5
2F4
330
2ED
100
AcDbEntity
  8
预设值
100
AcDbVertex
100
AcDb2dVertex
 10
-150.4633630376252
 20
-17.96732505659076
 30
0.0
  0
VERTEX
  5
2F5
330
2ED
100
AcDbEntity
  8
预设值
100
AcDbVertex
100
AcDb2dVertex
 10
-150.4633630376252
 20
-30.96662505659079
 30
0.0
 42
-0.4142135623730677
  0
VERTEX
  5
2F6
330
2ED
100
AcDbEntity
  8
预设值
100
AcDbVertex
100
AcDb2dVertex
 10
-151.1633630376252
 20
-31.66662505659078
 30
0.0
  0
SEQEND
  5
2F7
330
2ED
100
AcDbEntity
  8
预设值
  0
POLYLINE
  5
2F8
330
1F
100
AcDbEntity
  8
预设值
100
AcDb2dPolyline
 66
     1
 10
0.0
 20
0.0
 30
0.0
  0
VERTEX
  5
2F9
330
2F8
100
AcDbEntity
  8
预设值
100
AcDbVertex
100
AcDb2dVertex
 10
-97.68786303762522
 20
-12.41662505659078
 30
0.0
  0
VERTEX
  5
2FA
330
2F8
100
AcDbEntity
  8
预设值
100
AcDbVertex
100
AcDb2dVertex
 10
-84.68786303762522
 20
-12.41662505659077
 30
0.0
 42
0.414213562373098
  0
VERTEX
  5
2FB
330
2F8
100
AcDbEntity
  8
预设值
100
AcDbVertex
100
AcDb2dVertex
 10
-84.18786303762522
 20
-11.91662505659077
 30
0.0
  0
VERTEX
  5
2FC
330
2F8
100
AcDbEntity
  8
预设值
100
AcDbVertex
100
AcDb2dVertex
 10
-84.18786303762522
 20
1.082674943409224
 30
0.0
 42
0.4142135623730862
  0
VERTEX
  5
2FD
330
2F8
100
AcDbEntity
  8
预设值
100
AcDbVertex
100
AcDb2dVertex
 10
-84.68786303762522
 20
1.582674943409209
 30
0.0
  0
VERTEX
  5
2FE
330
2F8
100
AcDbEntity
  8
预设值
100
AcDbVertex
100
AcDb2dVertex
 10
-97.68786303762522
 20
1.582674943409209
 30
0.0
 42
0.4142135623730915
  0
VERTEX
  5
2FF
330
2F8
100
AcDbEntity
  8
预设值
100
AcDbVertex
100
AcDb2dVertex
 10
-98.1878630376252
 20
1.082674943409224
 30
0.0
  0
VERTEX
  5
300
330
2F8
100
AcDbEntity
  8
预设值
100
AcDbVertex
100
AcDb2dVertex
 10
-98.18786303762522
 20
-11.91662505659077
 30
0.0
 42
0.4142135623731058
  0
VERTEX
  5
301
330
2F8
100
AcDbEntity
  8
预设值
100
AcDbVertex
100
AcDb2dVertex
 10
-97.68786303762522
 20
-12.41662505659078
 30
0.0
  0
SEQEND
  5
302
330
2F8
100
AcDbEntity
  8
预设值
  0
POLYLINE
  5
303
330
1F
100
AcDbEntity
  8
预设值
100
AcDb2dPolyline
 66
     1
 10
0.0
 20
0.0
 30
0.0
  0
VERTEX
  5
304
330
303
100
AcDbEntity
  8
预设值
100
AcDbVertex
100
AcDb2dVertex
 10
-55.91286303762513
 20
-31.66662505659076
 30
0.0
  0
VERTEX
  5
305
330
303
100
AcDbEntity
  8
预设值
100
AcDbVertex
100
AcDb2dVertex
 10
-68.91286303762524
 20
-31.66662505659078
 30
0.0
 42
-0.4142135623730919
  0
VERTEX
  5
306
330
303
100
AcDbEntity
  8
预设值
100
AcDbVertex
100
AcDb2dVertex
 10
-69.61286303762526
 20
-30.96662505659076
 30
0.0
  0
VERTEX
  5
307
330
303
100
AcDbEntity
  8
预设值
100
AcDbVertex
100
AcDb2dVertex
 10
-69.61286303762517
 20
-17.9673250565908
 30
0.0
 42
-0.4142135623730909
  0
VERTEX
  5
308
330
303
100
AcDbEntity
  8
预设值
100
AcDbVertex
100
AcDb2dVertex
 10
-68.91286303762513
 20
-17.26732505659076
 30
0.0
  0
VERTEX
  5
309
330
303
100
AcDbEntity
  8
预设值
100
AcDbVertex
100
AcDb2dVertex
 10
-55.91286303762513
 20
-17.26732505659076
 30
0.0
 42
-0.4142135623730959
  0
VERTEX
  5
30A
330
303
100
AcDbEntity
  8
预设值
100
AcDbVertex
100
AcDb2dVertex
 10
-55.21286303762515
 20
-17.96732505659074
 30
0.0
  0
VERTEX
  5
30B
330
303
100
AcDbEntity
  8
预设值
100
AcDbVertex
100
AcDb2dVertex
 10
-55.2128630376252
 20
-30.96662505659077
 30
0.0
 42
-0.4142135623731154
  0
VERTEX
  5
30C
330
303
100
AcDbEntity
  8
预设值
100
AcDbVertex
100
AcDb2dVertex
 10
-55.91286303762513
 20
-31.66662505659076
 30
0.0
  0
SEQEND
  5
30D
330
303
100
AcDbEntity
  8
预设值
  0
POLYLINE
  5
30E
330
1F
100
AcDbEntity
  8
预设值
100
AcDb2dPolyline
 66
     1
 10
0.0
 20
0.0
 30
0.0
  0
VERTEX
  5
30F
330
30E
100
AcDbEntity
  8
预设值
100
AcDbVertex
100
AcDb2dVertex
 10
-45.29986303762519
 20
6.633374943409223
 30
0.0
  0
VERTEX
  5
310
330
30E
100
AcDbEntity
  8
预设值
100
AcDbVertex
100
AcDb2dVertex
 10
-32.30086303762516
 20
6.633374943409237
 30
0.0
 42
0.4142135623730941
  0
VERTEX
  5
311
330
30E
100
AcDbEntity
  8
预设值
100
AcDbVertex
100
AcDb2dVertex
 10
-31.80086303762516
 20
7.133374943409237
 30
0.0
  0
VERTEX
  5
312
330
30E
100
AcDbEntity
  8
预设值
100
AcDbVertex
100
AcDb2dVertex
 10
-31.80086303762516
 20
20.13267494340923
 30
0.0
 42
0.4142135623730794
  0
VERTEX
  5
313
330
30E
100
AcDbEntity
  8
预设值
100
AcDbVertex
100
AcDb2dVertex
 10
-32.30086303762516
 20
20.6326749434092
 30
0.0
  0
VERTEX
  5
314
330
30E
100
AcDbEntity
  8
预设值
100
AcDbVertex
100
AcDb2dVertex
 10
-45.2998630376253
 20
20.6326749434092
 30
0.0
 42
0.4142135623730963
  0
VERTEX
  5
315
330
30E
100
AcDbEntity
  8
预设值
100
AcDbVertex
100
AcDb2dVertex
 10
-45.79986303762527
 20
20.13267494340923
 30
0.0
  0
VERTEX
  5
316
330
30E
100
AcDbEntity
  8
预设值
100
AcDbVertex
100
AcDb2dVertex
 10
-45.79986303762519
 20
7.133374943409223
 30
0.0
 42
0.4142135623730929
  0
VERTEX
  5
317
330
30E
100
AcDbEntity
  8
预设值
100
AcDbVertex
100
AcDb2dVertex
 10
-45.29986303762519
 20
6.633374943409223
 30
0.0
  0
SEQEND
  5
318
330
30E
100
AcDbEntity
  8
预设值
  0
POLYLINE
  5
319
330
1F
100
AcDbEntity
  8
预设值
100
AcDb2dPolyline
 66
     1
 10
0.0
 20
0.0
 30
0.0
  0
VERTEX
  5
31A
330
319
100
AcDbEntity
  8
预设值
100
AcDbVertex
100
AcDb2dVertex
 10
11.85013696237479
 20
6.633374943409237
 30
0.0
  0
VERTEX
  5
31B
330
319
100
AcDbEntity
  8
预设值
100
AcDbVertex
100
AcDb2dVertex
 10
24.84913696237481
 20
6.633374943409194
 30
0.0
 42
0.4142135623730971
  0
VERTEX
  5
31C
330
319
100
AcDbEntity
  8
预设值
100
AcDbVertex
100
AcDb2dVertex
 10
25.34913696237482
 20
7.133374943409201
 30
0.0
  0
VERTEX
  5
31D
330
319
100
AcDbEntity
  8
预设值
100
AcDbVertex
100
AcDb2dVertex
 10
25.34913696237481
 20
20.13267494340923
 30
0.0
 42
0.4142135623730794
  0
VERTEX
  5
31E
330
319
100
AcDbEntity
  8
预设值
100
AcDbVertex
100
AcDb2dVertex
 10
24.84913696237481
 20
20.6326749434092
 30
0.0
  0
VERTEX
  5
31F
330
319
100
AcDbEntity
  8
预设值
100
AcDbVertex
100
AcDb2dVertex
 10
11.85013696237479
 20
20.63267494340921
 30
0.0
 42
0.4142135623730935
  0
VERTEX
  5
320
330
319
100
AcDbEntity
  8
预设值
100
AcDbVertex
100
AcDb2dVertex
 10
11.35013696237479
 20
20.13267494340921
 30
0.0
  0
VERTEX
  5
321
330
319
100
AcDbEntity
  8
预设值
100
AcDbVertex
100
AcDb2dVertex
 10
11.35013696237479
 20
7.133374943409237
 30
0.0
 42
0.4142135623730959
  0
VERTEX
  5
322
330
319
100
AcDbEntity
  8
预设值
100
AcDbVertex
100
AcDb2dVertex
 10
11.85013696237479
 20
6.633374943409237
 30
0.0
  0
SEQEND
  5
323
330
319
100
AcDbEntity
  8
预设值
  0
POLYLINE
  5
324
330
1F
100
AcDbEntity
  8
预设值
100
AcDb2dPolyline
 66
     1
 10
0.0
 20
0.0
 30
0.0
  0
VERTEX
  5
325
330
324
100
AcDbEntity
  8
预设值
100
AcDbVertex
100
AcDb2dVertex
 10
-127.5508630376253
 20
6.633374943409216
 30
0.0
  0
VERTEX
  5
326
330
324
100
AcDbEntity
  8
预设值
100
AcDbVertex
100
AcDb2dVertex
 10
-140.5501630376252
 20
6.633374943409237
 30
0.0
 42
-0.4142135623730976
  0
VERTEX
  5
327
330
324
100
AcDbEntity
  8
预设值
100
AcDbVertex
100
AcDb2dVertex
 10
-141.0501630376252
 20
7.133374943409237
 30
0.0
  0
VERTEX
  5
328
330
324
100
AcDbEntity
  8
预设值
100
AcDbVertex
100
AcDb2dVertex
 10
-141.0501630376252
 20
20.13267494340921
 30
0.0
 42
-0.4142135623730868
  0
VERTEX
  5
329
330
324
100
AcDbEntity
  8
预设值
100
AcDbVertex
100
AcDb2dVertex
 10
-140.5501630376252
 20
20.6326749434092
 30
0.0
  0
VERTEX
  5
32A
330
324
100
AcDbEntity
  8
预设值
100
AcDbVertex
100
AcDb2dVertex
 10
-127.5508630376252
 20
20.63267494340921
 30
0.0
 42
-0.4142135623730965
  0
VERTEX
  5
32B
330
324
100
AcDbEntity
  8
预设值
100
AcDbVertex
100
AcDb2dVertex
 10
-127.0508630376252
 20
20.13267494340921
 30
0.0
  0
VERTEX
  5
32C
330
324
100
AcDbEntity
  8
预设值
100
AcDbVertex
100
AcDb2dVertex
 10
-127.0508630376253
 20
7.133374943409216
 30
0.0
 42
-0.4142135623730929
  0
VERTEX
  5
32D
330
324
100
AcDbEntity
  8
预设值
100
AcDbVertex
100
AcDb2dVertex
 10
-127.5508630376253
 20
6.633374943409216
 30
0.0
  0
SEQEND
  5
32E
330
324
100
AcDbEntity
  8
预设值
  0
POLYLINE
  5
32F
330
1F
100
AcDbEntity
  8
预设值
100
AcDb2dPolyline
 66
     1
 10
0.0
 20
0.0
 30
0.0
  0
VERTEX
  5
330
330
32F
100
AcDbEntity
  8
预设值
100
AcDbVertex
100
AcDb2dVertex
 10
-178.6501630376252
 20
6.633374943409237
 30
0.0
  0
VERTEX
  5
331
330
32F
100
AcDbEntity
  8
预设值
100
AcDbVertex
100
AcDb2dVertex
 10
-165.6508630376252
 20
6.633374943409223
 30
0.0
 42
0.4142135623730976
  0
VERTEX
  5
332
330
32F
100
AcDbEntity
  8
预设值
100
AcDbVertex
100
AcDb2dVertex
 10
-165.1508630376252
 20
7.133374943409223
 30
0.0
  0
VERTEX
  5
333
330
32F
100
AcDbEntity
  8
预设值
100
AcDbVertex
100
AcDb2dVertex
 10
-165.1508630376252
 20
20.13267494340921
 30
0.0
 42
0.4142135623730963
  0
VERTEX
  5
334
330
32F
100
AcDbEntity
  8
预设值
100
AcDbVertex
100
AcDb2dVertex
 10
-165.6508630376252
 20
20.63267494340922
 30
0.0
  0
VERTEX
  5
335
330
32F
100
AcDbEntity
  8
预设值
100
AcDbVertex
100
AcDb2dVertex
 10
-178.6501630376251
 20
20.63267494340923
 30
0.0
 42
0.4142135623730965
  0
VERTEX
  5
336
330
32F
100
AcDbEntity
  8
预设值
100
AcDbVertex
100
AcDb2dVertex
 10
-179.1501630376251
 20
20.13267494340923
 30
0.0
  0
VERTEX
  5
337
330
32F
100
AcDbEntity
  8
预设值
100
AcDbVertex
100
AcDb2dVertex
 10
-179.1501630376251
 20
7.133374943409223
 30
0.0
 42
0.4142135623730883
  0
VERTEX
  5
338
330
32F
100
AcDbEntity
  8
预设值
100
AcDbVertex
100
AcDb2dVertex
 10
-178.6501630376251
 20
6.633374943409233
 30
0.0
  0
SEQEND
  5
339
330
32F
100
AcDbEntity
  8
预设值
  0
POLYLINE
  5
33A
330
1F
100
AcDbEntity
  8
预设值
100
AcDb2dPolyline
 66
     1
 10
0.0
 20
0.0
 30
0.0
  0
VERTEX
  5
33B
330
33A
100
AcDbEntity
  8
预设值
100
AcDbVertex
100
AcDb2dVertex
 10
-131.0251630376251
 20
25.68337494340921
 30
0.0
  0
VERTEX
  5
33C
330
33A
100
AcDbEntity
  8
预设值
100
AcDbVertex
100
AcDb2dVertex
 10
-118.0258630376252
 20
25.68337494340921
 30
0.0
 42
0.4142135623731034
  0
VERTEX
  5
33D
330
33A
100
AcDbEntity
  8
预设值
100
AcDbVertex
100
AcDb2dVertex
 10
-117.5258630376252
 20
26.18337494340922
 30
0.0
  0
VERTEX
  5
33E
330
33A
100
AcDbEntity
  8
预设值
100
AcDbVertex
100
AcDb2dVertex
 10
-117.5258630376252
 20
39.18267494340925
 30
0.0
 42
0.4142135623730628
  0
VERTEX
  5
33F
330
33A
100
AcDbEntity
  8
预设值
100
AcDbVertex
100
AcDb2dVertex
 10
-118.0258630376252
 20
39.68267494340921
 30
0.0
  0
VERTEX
  5
340
330
33A
100
AcDbEntity
  8
预设值
100
AcDbVertex
100
AcDb2dVertex
 10
-131.0251630376252
 20
39.68267494340922
 30
0.0
 42
0.414213562373095
  0
VERTEX
  5
341
330
33A
100
AcDbEntity
  8
预设值
100
AcDbVertex
100
AcDb2dVertex
 10
-131.5251630376252
 20
39.18267494340922
 30
0.0
  0
VERTEX
  5
342
330
33A
100
AcDbEntity
  8
预设值
100
AcDbVertex
100
AcDb2dVertex
 10
-131.5251630376252
 20
26.18337494340922
 30
0.0
 42
0.414213562373029
  0
VERTEX
  5
343
330
33A
100
AcDbEntity
  8
预设值
100
AcDbVertex
100
AcDb2dVertex
 10
-131.0251630376251
 20
25.68337494340921
 30
0.0
  0
SEQEND
  5
344
330
33A
100
AcDbEntity
  8
预设值
  0
POLYLINE
  5
345
330
1F
100
AcDbEntity
  8
预设值
100
AcDb2dPolyline
 66
     1
 10
0.0
 20
0.0
 30
0.0
  0
VERTEX
  5
346
330
345
100
AcDbEntity
  8
预设值
100
AcDbVertex
100
AcDb2dVertex
 10
134.3871369623748
 20
25.68337494340919
 30
0.0
  0
VERTEX
  5
347
330
345
100
AcDbEntity
  8
预设值
100
AcDbVertex
100
AcDb2dVertex
 10
121.3871369623748
 20
25.68337494340922
 30
0.0
 42
-0.4142135623730965
  0
VERTEX
  5
348
330
345
100
AcDbEntity
  8
预设值
100
AcDbVertex
100
AcDb2dVertex
 10
120.8871369623748
 20
26.18337494340922
 30
0.0
  0
VERTEX
  5
349
330
345
100
AcDbEntity
  8
预设值
100
AcDbVertex
100
AcDb2dVertex
 10
120.8871369623748
 20
39.18267494340922
 30
0.0
 42
-0.414213562373095
  0
VERTEX
  5
34A
330
345
100
AcDbEntity
  8
预设值
100
AcDbVertex
100
AcDb2dVertex
 10
121.3871369623748
 20
39.68267494340922
 30
0.0
  0
VERTEX
  5
34B
330
345
100
AcDbEntity
  8
预设值
100
AcDbVertex
100
AcDb2dVertex
 10
134.3871369623748
 20
39.68267494340922
 30
0.0
 42
-0.414213562373095
  0
VERTEX
  5
34C
330
345
100
AcDbEntity
  8
预设值
100
AcDbVertex
100
AcDb2dVertex
 10
134.8871369623748
 20
39.18267494340922
 30
0.0
  0
VERTEX
  5
34D
330
345
100
AcDbEntity
  8
预设值
100
AcDbVertex
100
AcDb2dVertex
 10
134.8871369623748
 20
26.18337494340923
 30
0.0
 42
-0.4142135623731127
  0
VERTEX
  5
34E
330
345
100
AcDbEntity
  8
预设值
100
AcDbVertex
100
AcDb2dVertex
 10
134.3871369623748
 20
25.68337494340918
 30
0.0
  0
SEQEND
  5
34F
330
345
100
AcDbEntity
  8
预设值
  0
POLYLINE
  5
350
330
1F
100
AcDbEntity
  8
预设值
100
AcDb2dPolyline
 66
     1
 10
0.0
 20
0.0
 30
0.0
  0
VERTEX
  5
351
330
350
100
AcDbEntity
  8
预设值
100
AcDbVertex
100
AcDb2dVertex
 10
96.28713696237469
 20
25.68337494340919
 30
0.0
  0
VERTEX
  5
352
330
350
100
AcDbEntity
  8
预设值
100
AcDbVertex
100
AcDb2dVertex
 10
83.2871369623748
 20
25.68337494340919
 30
0.0
 42
-0.414213562373094
  0
VERTEX
  5
353
330
350
100
AcDbEntity
  8
预设值
100
AcDbVertex
100
AcDb2dVertex
 10
82.78713696237475
 20
26.18337494340925
 30
0.0
  0
VERTEX
  5
354
330
350
100
AcDbEntity
  8
预设值
100
AcDbVertex
100
AcDb2dVertex
 10
82.7871369623748
 20
39.18267494340922
 30
0.0
 42
-0.414213562373095
  0
VERTEX
  5
355
330
350
100
AcDbEntity
  8
预设值
100
AcDbVertex
100
AcDb2dVertex
 10
83.2871369623748
 20
39.68267494340922
 30
0.0
  0
VERTEX
  5
356
330
350
100
AcDbEntity
  8
预设值
100
AcDbVertex
100
AcDb2dVertex
 10
96.28713696237469
 20
39.68267494340925
 30
0.0
 42
-0.4142135623730976
  0
VERTEX
  5
357
330
350
100
AcDbEntity
  8
预设值
100
AcDbVertex
100
AcDb2dVertex
 10
96.78713696237472
 20
39.18267494340922
 30
0.0
  0
VERTEX
  5
358
330
350
100
AcDbEntity
  8
预设值
100
AcDbVertex
100
AcDb2dVertex
 10
96.7871369623748
 20
26.18337494340923
 30
0.0
 42
-0.4142135623730602
  0
VERTEX
  5
359
330
350
100
AcDbEntity
  8
预设值
100
AcDbVertex
100
AcDb2dVertex
 10
96.28713696237469
 20
25.68337494340918
 30
0.0
  0
SEQEND
  5
35A
330
350
100
AcDbEntity
  8
预设值
  0
POLYLINE
  5
35B
330
1F
100
AcDbEntity
  8
预设值
100
AcDb2dPolyline
 66
     1
 10
0.0
 20
0.0
 30
0.0
  0
VERTEX
  5
35C
330
35B
100
AcDbEntity
  8
预设值
100
AcDbVertex
100
AcDb2dVertex
 10
-202.4627030376253
 20
20.63267494340921
 30
0.0
  0
VERTEX
  5
35D
330
35B
100
AcDbEntity
  8
预设值
100
AcDbVertex
100
AcDb2dVertex
 10
-189.4631630376252
 20
20.6326749434092
 30
0.0
 42
-0.414213562373094
  0
VERTEX
  5
35E
330
35B
100
AcDbEntity
  8
预设值
100
AcDbVertex
100
AcDb2dVertex
 10
-188.9631630376253
 20
20.13267494340923
 30
0.0
  0
VERTEX
  5
35F
330
35B
100
AcDbEntity
  8
预设值
100
AcDbVertex
100
AcDb2dVertex
 10
-188.9631630376252
 20
7.13337494340923
 30
0.0
 42
-0.4142135623730954
  0
VERTEX
  5
360
330
35B
100
AcDbEntity
  8
预设值
100
AcDbVertex
100
AcDb2dVertex
 10
-189.4631630376252
 20
6.633374943409223
 30
0.0
  0
VERTEX
  5
361
330
35B
100
AcDbEntity
  8
预设值
100
AcDbVertex
100
AcDb2dVertex
 10
-202.4627030376253
 20
6.633374943409223
 30
0.0
 42
-0.4142135623730976
  0
VERTEX
  5
362
330
35B
100
AcDbEntity
  8
预设值
100
AcDbVertex
100
AcDb2dVertex
 10
-202.9627030376253
 20
7.133374943409223
 30
0.0
  0
VERTEX
  5
363
330
35B
100
AcDbEntity
  8
预设值
100
AcDbVertex
100
AcDb2dVertex
 10
-202.9627030376253
 20
20.13267494340923
 30
0.0
 42
-0.4142135623730712
  0
VERTEX
  5
364
330
35B
100
AcDbEntity
  8
预设值
100
AcDbVertex
100
AcDb2dVertex
 10
-202.4627030376253
 20
20.63267494340921
 30
0.0
  0
SEQEND
  5
365
330
35B
100
AcDbEntity
  8
预设值
  0
POLYLINE
  5
366
330
1F
100
AcDbEntity
  8
预设值
100
AcDb2dPolyline
 66
     1
 10
0.0
 20
0.0
 30
0.0
  0
VERTEX
  5
367
330
366
100
AcDbEntity
  8
预设值
100
AcDbVertex
100
AcDb2dVertex
 10
-132.1133630376253
 20
-31.66662505659078
 30
0.0
  0
VERTEX
  5
368
330
366
100
AcDbEntity
  8
预设值
100
AcDbVertex
100
AcDb2dVertex
 10
-145.1126630376252
 20
-31.66662505659077
 30
0.0
 42
-0.4142135623730878
  0
VERTEX
  5
369
330
366
100
AcDbEntity
  8
预设值
100
AcDbVertex
100
AcDb2dVertex
 10
-145.8126630376252
 20
-30.96662505659078
 30
0.0
  0
VERTEX
  5
36A
330
366
100
AcDbEntity
  8
预设值
100
AcDbVertex
100
AcDb2dVertex
 10
-145.8126630376253
 20
-17.96732505659077
 30
0.0
 42
-0.4142135623730846
  0
VERTEX
  5
36B
330
366
100
AcDbEntity
  8
预设值
100
AcDbVertex
100
AcDb2dVertex
 10
-145.1126630376252
 20
-17.26732505659079
 30
0.0
  0
VERTEX
  5
36C
330
366
100
AcDbEntity
  8
预设值
100
AcDbVertex
100
AcDb2dVertex
 10
-132.1133630376253
 20
-17.26732505659078
 30
0.0
 42
-0.4142135623730878
  0
VERTEX
  5
36D
330
366
100
AcDbEntity
  8
预设值
100
AcDbVertex
100
AcDb2dVertex
 10
-131.4133630376253
 20
-17.96732505659077
 30
0.0
  0
VERTEX
  5
36E
330
366
100
AcDbEntity
  8
预设值
100
AcDbVertex
100
AcDb2dVertex
 10
-131.4133630376252
 20
-30.96662505659078
 30
0.0
 42
-0.4142135623730805
  0
VERTEX
  5
36F
330
366
100
AcDbEntity
  8
预设值
100
AcDbVertex
100
AcDb2dVertex
 10
-132.1133630376253
 20
-31.66662505659078
 30
0.0
  0
SEQEND
  5
370
330
366
100
AcDbEntity
  8
预设值
  0
POLYLINE
  5
371
330
1F
100
AcDbEntity
  8
预设值
100
AcDb2dPolyline
 66
     1
 10
0.0
 20
0.0
 30
0.0
  0
VERTEX
  5
372
330
371
100
AcDbEntity
  8
预设值
100
AcDbVertex
100
AcDb2dVertex
 10
96.48713696237473
 20
-50.71665505659082
 30
0.0
  0
VERTEX
  5
373
330
371
100
AcDbEntity
  8
预设值
100
AcDbVertex
100
AcDb2dVertex
 10
83.48713696237473
 20
-50.7166550565908
 30
0.0
 42
-0.4142135623730971
  0
VERTEX
  5
374
330
371
100
AcDbEntity
  8
预设值
100
AcDbVertex
100
AcDb2dVertex
 10
82.78713696237469
 20
-50.01665505659075
 30
0.0
  0
VERTEX
  5
375
330
371
100
AcDbEntity
  8
预设值
100
AcDbVertex
100
AcDb2dVertex
 10
82.7871369623748
 20
-37.01712505659077
 30
0.0
 42
-0.4142135623731426
  0
VERTEX
  5
376
330
371
100
AcDbEntity
  8
预设值
100
AcDbVertex
100
AcDb2dVertex
 10
83.48713696237479
 20
-36.31712505659079
 30
0.0
  0
VERTEX
  5
377
330
371
100
AcDbEntity
  8
预设值
100
AcDbVertex
100
AcDb2dVertex
 10
96.48713696237496
 20
-36.3171250565908
 30
0.0
 42
-0.4142135623730949
  0
VERTEX
  5
378
330
371
100
AcDbEntity
  8
预设值
100
AcDbVertex
100
AcDb2dVertex
 10
97.1871369623749
 20
-37.01712505659073
 30
0.0
  0
VERTEX
  5
379
330
371
100
AcDbEntity
  8
预设值
100
AcDbVertex
100
AcDb2dVertex
 10
97.18713696237478
 20
-50.01665505659077
 30
0.0
 42
-0.4142135623730916
  0
VERTEX
  5
37A
330
371
100
AcDbEntity
  8
预设值
100
AcDbVertex
100
AcDb2dVertex
 10
96.48713696237473
 20
-50.71665505659082
 30
0.0
  0
SEQEND
  5
37B
330
371
100
AcDbEntity
  8
预设值
  0
POLYLINE
  5
37C
330
1F
100
AcDbEntity
  8
预设值
100
AcDb2dPolyline
 66
     1
 10
0.0
 20
0.0
 30
0.0
  0
VERTEX
  5
37D
330
37C
100
AcDbEntity
  8
预设值
100
AcDbVertex
100
AcDb2dVertex
 10
20.08713696237476
 20
-31.46662505659077
 30
0.0
  0
VERTEX
  5
37E
330
37C
100
AcDbEntity
  8
预设值
100
AcDbVertex
100
AcDb2dVertex
 10
7.087136962374757
 20
-31.46662505659078
 30
0.0
 42
-0.4142135623730956
  0
VERTEX
  5
37F
330
37C
100
AcDbEntity
  8
预设值
100
AcDbVertex
100
AcDb2dVertex
 10
6.587136962374728
 20
-30.96662505659075
 30
0.0
  0
VERTEX
  5
380
330
37C
100
AcDbEntity
  8
预设值
100
AcDbVertex
100
AcDb2dVertex
 10
6.587136962374757
 20
-17.96732505659082
 30
0.0
 42
-0.4142135623731193
  0
VERTEX
  5
381
330
37C
100
AcDbEntity
  8
预设值
100
AcDbVertex
100
AcDb2dVertex
 10
7.087136962374757
 20
-17.46732505659077
 30
0.0
  0
VERTEX
  5
382
330
37C
100
AcDbEntity
  8
预设值
100
AcDbVertex
100
AcDb2dVertex
 10
20.08713696237476
 20
-17.46732505659077
 30
0.0
 42
-0.4142135623731548
  0
VERTEX
  5
383
330
37C
100
AcDbEntity
  8
预设值
100
AcDbVertex
100
AcDb2dVertex
 10
20.58713696237481
 20
-17.96732505659073
 30
0.0
  0
VERTEX
  5
384
330
37C
100
AcDbEntity
  8
预设值
100
AcDbVertex
100
AcDb2dVertex
 10
20.58713696237476
 20
-30.96662505659081
 30
0.0
 42
-0.4142135623731286
  0
VERTEX
  5
385
330
37C
100
AcDbEntity
  8
预设值
100
AcDbVertex
100
AcDb2dVertex
 10
20.08713696237487
 20
-31.46662505659076
 30
0.0
  0
SEQEND
  5
386
330
37C
100
AcDbEntity
  8
预设值
  0
POLYLINE
  5
387
330
1F
100
AcDbEntity
  8
预设值
100
AcDb2dPolyline
 66
     1
 10
0.0
 20
0.0
 30
0.0
  0
VERTEX
  5
388
330
387
100
AcDbEntity
  8
预设值
100
AcDbVertex
100
AcDb2dVertex
 10
-13.25086303762521
 20
49.49607494340924
 30
0.0
  0
VERTEX
  5
389
330
387
100
AcDbEntity
  8
预设值
100
AcDbVertex
100
AcDb2dVertex
 10
-26.24986303762512
 20
49.49607494340921
 30
0.0
 42
-0.4142135623730979
  0
VERTEX
  5
38A
330
387
100
AcDbEntity
  8
预设值
100
AcDbVertex
100
AcDb2dVertex
 10
-26.74986303762518
 20
49.99607494340927
 30
0.0
  0
VERTEX
  5
38B
330
387
100
AcDbEntity
  8
预设值
100
AcDbVertex
100
AcDb2dVertex
 10
-26.74986303762523
 20
62.99507494340918
 30
0.0
 42
-0.4142135623731159
  0
VERTEX
  5
38C
330
387
100
AcDbEntity
  8
预设值
100
AcDbVertex
100
AcDb2dVertex
 10
-26.24986303762523
 20
63.49507494340922
 30
0.0
  0
VERTEX
  5
38D
330
387
100
AcDbEntity
  8
预设值
100
AcDbVertex
100
AcDb2dVertex
 10
-13.25086303762521
 20
63.49507494340922
 30
0.0
 42
-0.414213562373095
  0
VERTEX
  5
38E
330
387
100
AcDbEntity
  8
预设值
100
AcDbVertex
100
AcDb2dVertex
 10
-12.75086303762527
 20
62.99507494340928
 30
0.0
  0
VERTEX
  5
38F
330
387
100
AcDbEntity
  8
预设值
100
AcDbVertex
100
AcDb2dVertex
 10
-12.75086303762521
 20
49.99607494340923
 30
0.0
 42
-0.414213562373098
  0
VERTEX
  5
390
330
387
100
AcDbEntity
  8
预设值
100
AcDbVertex
100
AcDb2dVertex
 10
-13.25086303762521
 20
49.49607494340923
 30
0.0
  0
SEQEND
  5
391
330
387
100
AcDbEntity
  8
预设值
  0
POLYLINE
  5
392
330
1F
100
AcDbEntity
  8
预设值
100
AcDb2dPolyline
 66
     1
 10
0.0
 20
0.0
 30
0.0
  0
VERTEX
  5
393
330
392
100
AcDbEntity
  8
预设值
100
AcDbVertex
100
AcDb2dVertex
 10
-40.53786303762524
 20
-12.41662505659077
 30
0.0
  0
VERTEX
  5
394
330
392
100
AcDbEntity
  8
预设值
100
AcDbVertex
100
AcDb2dVertex
 10
-27.53786303762524
 20
-12.41662505659077
 30
0.0
 42
0.4142135623730966
  0
VERTEX
  5
395
330
392
100
AcDbEntity
  8
预设值
100
AcDbVertex
100
AcDb2dVertex
 10
-27.03786303762529
 20
-11.91662505659082
 30
0.0
  0
VERTEX
  5
396
330
392
100
AcDbEntity
  8
预设值
100
AcDbVertex
100
AcDb2dVertex
 10
-27.03786303762524
 20
1.082674943409266
 30
0.0
 42
0.4142135623730794
  0
VERTEX
  5
397
330
392
100
AcDbEntity
  8
预设值
100
AcDbVertex
100
AcDb2dVertex
 10
-27.53786303762524
 20
1.582674943409238
 30
0.0
  0
VERTEX
  5
398
330
392
100
AcDbEntity
  8
预设值
100
AcDbVertex
100
AcDb2dVertex
 10
-40.53786303762524
 20
1.582674943409231
 30
0.0
 42
0.4142135623730368
  0
VERTEX
  5
399
330
392
100
AcDbEntity
  8
预设值
100
AcDbVertex
100
AcDb2dVertex
 10
-41.03786303762519
 20
1.082674943409188
 30
0.0
  0
VERTEX
  5
39A
330
392
100
AcDbEntity
  8
预设值
100
AcDbVertex
100
AcDb2dVertex
 10
-41.03786303762524
 20
-11.91662505659074
 30
0.0
 42
0.414213562373092
  0
VERTEX
  5
39B
330
392
100
AcDbEntity
  8
预设值
100
AcDbVertex
100
AcDb2dVertex
 10
-40.53786303762524
 20
-12.41662505659074
 30
0.0
  0
SEQEND
  5
39C
330
392
100
AcDbEntity
  8
预设值
  0
POLYLINE
  5
39D
330
1F
100
AcDbEntity
  8
预设值
100
AcDb2dPolyline
 66
     1
 10
0.0
 20
0.0
 30
0.0
  0
VERTEX
  5
39E
330
39D
100
AcDbEntity
  8
预设值
100
AcDbVertex
100
AcDb2dVertex
 10
21.37513696237488
 20
49.49607494340921
 30
0.0
  0
VERTEX
  5
39F
330
39D
100
AcDbEntity
  8
预设值
100
AcDbVertex
100
AcDb2dVertex
 10
34.37413696237479
 20
49.49607494340924
 30
0.0
 42
0.4142135623730933
  0
VERTEX
  5
3A0
330
39D
100
AcDbEntity
  8
预设值
100
AcDbVertex
100
AcDb2dVertex
 10
34.87413696237472
 20
49.99607494340917
 30
0.0
  0
VERTEX
  5
3A1
330
39D
100
AcDbEntity
  8
预设值
100
AcDbVertex
100
AcDb2dVertex
 10
34.87413696237479
 20
62.99507494340922
 30
0.0
 42
0.414213562373095
  0
VERTEX
  5
3A2
330
39D
100
AcDbEntity
  8
预设值
100
AcDbVertex
100
AcDb2dVertex
 10
34.37413696237479
 20
63.49507494340922
 30
0.0
  0
VERTEX
  5
3A3
330
39D
100
AcDbEntity
  8
预设值
100
AcDbVertex
100
AcDb2dVertex
 10
21.37513696237477
 20
63.49507494340922
 30
0.0
 42
0.4142135623730951
  0
VERTEX
  5
3A4
330
39D
100
AcDbEntity
  8
预设值
100
AcDbVertex
100
AcDb2dVertex
 10
20.87513696237473
 20
62.99507494340918
 30
0.0
  0
VERTEX
  5
3A5
330
39D
100
AcDbEntity
  8
预设值
100
AcDbVertex
100
AcDb2dVertex
 10
20.87513696237477
 20
49.99607494340927
 30
0.0
 42
0.4142135623730638
  0
VERTEX
  5
3A6
330
39D
100
AcDbEntity
  8
预设值
100
AcDbVertex
100
AcDb2dVertex
 10
21.37513696237488
 20
49.49607494340921
 30
0.0
  0
SEQEND
  5
3A7
330
39D
100
AcDbEntity
  8
预设值
  0
POLYLINE
  5
3A8
330
1F
100
AcDbEntity
  8
预设值
100
AcDb2dPolyline
 66
     1
 10
0.0
 20
0.0
 30
0.0
  0
VERTEX
  5
3A9
330
3A8
100
AcDbEntity
  8
预设值
100
AcDbVertex
100
AcDb2dVertex
 10
-2.43786303762522
 20
-12.41662505659077
 30
0.0
  0
VERTEX
  5
3AA
330
3A8
100
AcDbEntity
  8
预设值
100
AcDbVertex
100
AcDb2dVertex
 10
10.56213696237478
 20
-12.41662505659077
 30
0.0
 42
0.4142135623730961
  0
VERTEX
  5
3AB
330
3A8
100
AcDbEntity
  8
预设值
100
AcDbVertex
100
AcDb2dVertex
 10
11.06213696237474
 20
-11.91662505659082
 30
0.0
  0
VERTEX
  5
3AC
330
3A8
100
AcDbEntity
  8
预设值
100
AcDbVertex
100
AcDb2dVertex
 10
11.06213696237478
 20
1.082674943409252
 30
0.0
 42
0.4142135623730787
  0
VERTEX
  5
3AD
330
3A8
100
AcDbEntity
  8
预设值
100
AcDbVertex
100
AcDb2dVertex
 10
10.56213696237478
 20
1.582674943409224
 30
0.0
  0
VERTEX
  5
3AE
330
3A8
100
AcDbEntity
  8
预设值
100
AcDbVertex
100
AcDb2dVertex
 10
-2.43786303762522
 20
1.582674943409231
 30
0.0
 42
0.4142135623731033
  0
VERTEX
  5
3AF
330
3A8
100
AcDbEntity
  8
预设值
100
AcDbVertex
100
AcDb2dVertex
 10
-2.937863037625277
 20
1.082674943409188
 30
0.0
  0
VERTEX
  5
3B0
330
3A8
100
AcDbEntity
  8
预设值
100
AcDbVertex
100
AcDb2dVertex
 10
-2.93786303762522
 20
-11.91662505659074
 30
0.0
 42
0.4142135623730943
  0
VERTEX
  5
3B1
330
3A8
100
AcDbEntity
  8
预设值
100
AcDbVertex
100
AcDb2dVertex
 10
-2.43786303762522
 20
-12.41662505659074
 30
0.0
  0
SEQEND
  5
3B2
330
3A8
100
AcDbEntity
  8
预设值
  0
POLYLINE
  5
3B3
330
1F
100
AcDbEntity
  8
预设值
100
AcDb2dPolyline
 66
     1
 10
0.0
 20
0.0
 30
0.0
  0
VERTEX
  5
3B4
330
3B3
100
AcDbEntity
  8
预设值
100
AcDbVertex
100
AcDb2dVertex
 10
1.037136962374802
 20
-31.46662505659079
 30
0.0
  0
VERTEX
  5
3B5
330
3B3
100
AcDbEntity
  8
预设值
100
AcDbVertex
100
AcDb2dVertex
 10
-11.9628630376252
 20
-31.46662505659079
 30
0.0
 42
-0.4142135623730965
  0
VERTEX
  5
3B6
330
3B3
100
AcDbEntity
  8
预设值
100
AcDbVertex
100
AcDb2dVertex
 10
-12.46286303762523
 20
-30.96662505659076
 30
0.0
  0
VERTEX
  5
3B7
330
3B3
100
AcDbEntity
  8
预设值
100
AcDbVertex
100
AcDb2dVertex
 10
-12.4628630376252
 20
-17.96732505659082
 30
0.0
 42
-0.4142135623731318
  0
VERTEX
  5
3B8
330
3B3
100
AcDbEntity
  8
预设值
100
AcDbVertex
100
AcDb2dVertex
 10
-11.9628630376252
 20
-17.46732505659076
 30
0.0
  0
VERTEX
  5
3B9
330
3B3
100
AcDbEntity
  8
预设值
100
AcDbVertex
100
AcDb2dVertex
 10
1.037136962374802
 20
-17.46732505659078
 30
0.0
 42
-0.4142135623730947
  0
VERTEX
  5
3BA
330
3B3
100
AcDbEntity
  8
预设值
100
AcDbVertex
100
AcDb2dVertex
 10
1.537136962374746
 20
-17.96732505659072
 30
0.0
  0
VERTEX
  5
3BB
330
3B3
100
AcDbEntity
  8
预设值
100
AcDbVertex
100
AcDb2dVertex
 10
1.537136962374802
 20
-30.96662505659079
 30
0.0
 42
-0.4142135623730938
  0
VERTEX
  5
3BC
330
3B3
100
AcDbEntity
  8
预设值
100
AcDbVertex
100
AcDb2dVertex
 10
1.037136962374802
 20
-31.46662505659079
 30
0.0
  0
SEQEND
  5
3BD
330
3B3
100
AcDbEntity
  8
预设值
  0
POLYLINE
  5
3BE
330
1F
100
AcDbEntity
  8
预设值
100
AcDb2dPolyline
 66
     1
 10
0.0
 20
0.0
 30
0.0
  0
VERTEX
  5
3BF
330
3BE
100
AcDbEntity
  8
预设值
100
AcDbVertex
100
AcDb2dVertex
 10
-64.34986303762525
 20
6.633374943409237
 30
0.0
  0
VERTEX
  5
3C0
330
3BE
100
AcDbEntity
  8
预设值
100
AcDbVertex
100
AcDb2dVertex
 10
-51.35086303762523
 20
6.633374943409237
 30
0.0
 42
0.4142135623730864
  0
VERTEX
  5
3C1
330
3BE
100
AcDbEntity
  8
预设值
100
AcDbVertex
100
AcDb2dVertex
 10
-50.85086303762528
 20
7.133374943409201
 30
0.0
  0
VERTEX
  5
3C2
330
3BE
100
AcDbEntity
  8
预设值
100
AcDbVertex
100
AcDb2dVertex
 10
-50.85086303762523
 20
20.13267494340926
 30
0.0
 42
0.4142135623730644
  0
VERTEX
  5
3C3
330
3BE
100
AcDbEntity
  8
预设值
100
AcDbVertex
100
AcDb2dVertex
 10
-51.35086303762523
 20
20.6326749434092
 30
0.0
  0
VERTEX
  5
3C4
330
3BE
100
AcDbEntity
  8
预设值
100
AcDbVertex
100
AcDb2dVertex
 10
-64.34986303762525
 20
20.63267494340921
 30
0.0
 42
0.4142135623730965
  0
VERTEX
  5
3C5
330
3BE
100
AcDbEntity
  8
预设值
100
AcDbVertex
100
AcDb2dVertex
 10
-64.84986303762525
 20
20.13267494340921
 30
0.0
  0
VERTEX
  5
3C6
330
3BE
100
AcDbEntity
  8
预设值
100
AcDbVertex
100
AcDb2dVertex
 10
-64.84986303762525
 20
7.133374943409237
 30
0.0
 42
0.4142135623730929
  0
VERTEX
  5
3C7
330
3BE
100
AcDbEntity
  8
预设值
100
AcDbVertex
100
AcDb2dVertex
 10
-64.34986303762525
 20
6.633374943409237
 30
0.0
  0
SEQEND
  5
3C8
330
3BE
100
AcDbEntity
  8
预设值
  0
CIRCLE
  5
3C9
330
1F
100
AcDbEntity
  8
预设值
100
AcDbCircle
 10
36.88713696237471
 20
68.99507494340922
 30
0.0
 40
1.100000000000051
  0
POLYLINE
  5
3CA
330
1F
100
AcDbEntity
  8
预设值
100
AcDb2dPolyline
 66
     1
 10
0.0
 20
0.0
 30
0.0
  0
VERTEX
  5
3CB
330
3CA
100
AcDbEntity
  8
预设值
100
AcDbVertex
100
AcDb2dVertex
 10
115.5371369623747
 20
-50.7166550565908
 30
0.0
  0
VERTEX
  5
3CC
330
3CA
100
AcDbEntity
  8
预设值
100
AcDbVertex
100
AcDb2dVertex
 10
102.5371369623749
 20
-50.7166550565908
 30
0.0
 42
-0.4142135623730967
  0
VERTEX
  5
3CD
330
3CA
100
AcDbEntity
  8
预设值
100
AcDbVertex
100
AcDb2dVertex
 10
101.8371369623748
 20
-50.01665505659072
 30
0.0
  0
VERTEX
  5
3CE
330
3CA
100
AcDbEntity
  8
预设值
100
AcDbVertex
100
AcDb2dVertex
 10
101.8371369623748
 20
-37.01712505659086
 30
0.0
 42
-0.41421356237309
  0
VERTEX
  5
3CF
330
3CA
100
AcDbEntity
  8
预设值
100
AcDbVertex
100
AcDb2dVertex
 10
102.5371369623748
 20
-36.31712505659081
 30
0.0
  0
VERTEX
  5
3D0
330
3CA
100
AcDbEntity
  8
预设值
100
AcDbVertex
100
AcDb2dVertex
 10
115.5371369623749
 20
-36.3171250565908
 30
0.0
 42
-0.4142135623731031
  0
VERTEX
  5
3D1
330
3CA
100
AcDbEntity
  8
预设值
100
AcDbVertex
100
AcDb2dVertex
 10
116.2371369623748
 20
-37.0171250565907
 30
0.0
  0
VERTEX
  5
3D2
330
3CA
100
AcDbEntity
  8
预设值
100
AcDbVertex
100
AcDb2dVertex
 10
116.2371369623747
 20
-50.01665505659088
 30
0.0
 42
-0.4142135623731174
  0
VERTEX
  5
3D3
330
3CA
100
AcDbEntity
  8
预设值
100
AcDbVertex
100
AcDb2dVertex
 10
115.5371369623749
 20
-50.71665505659075
 30
0.0
  0
SEQEND
  5
3D4
330
3CA
100
AcDbEntity
  8
预设值
  0
POLYLINE
  5
3D5
330
1F
100
AcDbEntity
  8
预设值
100
AcDb2dPolyline
 66
     1
 10
0.0
 20
0.0
 30
0.0
  0
VERTEX
  5
3D6
330
3D5
100
AcDbEntity
  8
预设值
100
AcDbVertex
100
AcDb2dVertex
 10
96.2871369623748
 20
6.633374943409208
 30
0.0
  0
VERTEX
  5
3D7
330
3D5
100
AcDbEntity
  8
预设值
100
AcDbVertex
100
AcDb2dVertex
 10
83.28713696237469
 20
6.633374943409251
 30
0.0
 42
-0.4142135623730976
  0
VERTEX
  5
3D8
330
3D5
100
AcDbEntity
  8
预设值
100
AcDbVertex
100
AcDb2dVertex
 10
82.78713696237469
 20
7.133374943409251
 30
0.0
  0
VERTEX
  5
3D9
330
3D5
100
AcDbEntity
  8
预设值
100
AcDbVertex
100
AcDb2dVertex
 10
82.7871369623748
 20
20.13267494340926
 30
0.0
 42
-0.4142135623730878
  0
VERTEX
  5
3DA
330
3D5
100
AcDbEntity
  8
预设值
100
AcDbVertex
100
AcDb2dVertex
 10
83.2871369623748
 20
20.63267494340924
 30
0.0
  0
VERTEX
  5
3DB
330
3D5
100
AcDbEntity
  8
预设值
100
AcDbVertex
100
AcDb2dVertex
 10
96.28713696237469
 20
20.6326749434093
 30
0.0
 42
-0.4142135623731034
  0
VERTEX
  5
3DC
330
3D5
100
AcDbEntity
  8
预设值
100
AcDbVertex
100
AcDb2dVertex
 10
96.7871369623747
 20
20.13267494340928
 30
0.0
  0
VERTEX
  5
3DD
330
3D5
100
AcDbEntity
  8
预设值
100
AcDbVertex
100
AcDb2dVertex
 10
96.7871369623748
 20
7.133374943409194
 30
0.0
 42
-0.4142135623730929
  0
VERTEX
  5
3DE
330
3D5
100
AcDbEntity
  8
预设值
100
AcDbVertex
100
AcDb2dVertex
 10
96.2871369623748
 20
6.633374943409194
 30
0.0
  0
SEQEND
  5
3DF
330
3D5
100
AcDbEntity
  8
预设值
  0
POLYLINE
  5
3E0
330
1F
100
AcDbEntity
  8
预设值
100
AcDb2dPolyline
 66
     1
 10
0.0
 20
0.0
 30
0.0
  0
VERTEX
  5
3E1
330
3E0
100
AcDbEntity
  8
预设值
100
AcDbVertex
100
AcDb2dVertex
 10
34.37413696237479
 20
25.68337494340923
 30
0.0
  0
VERTEX
  5
3E2
330
3E0
100
AcDbEntity
  8
预设值
100
AcDbVertex
100
AcDb2dVertex
 10
21.37513696237488
 20
25.68337494340921
 30
0.0
 42
-0.4142135623730907
  0
VERTEX
  5
3E3
330
3E0
100
AcDbEntity
  8
预设值
100
AcDbVertex
100
AcDb2dVertex
 10
20.87513696237482
 20
26.18337494340926
 30
0.0
  0
VERTEX
  5
3E4
330
3E0
100
AcDbEntity
  8
预设值
100
AcDbVertex
100
AcDb2dVertex
 10
20.87513696237477
 20
39.18267494340918
 30
0.0
 42
-0.4142135623731159
  0
VERTEX
  5
3E5
330
3E0
100
AcDbEntity
  8
预设值
100
AcDbVertex
100
AcDb2dVertex
 10
21.37513696237477
 20
39.68267494340922
 30
0.0
  0
VERTEX
  5
3E6
330
3E0
100
AcDbEntity
  8
预设值
100
AcDbVertex
100
AcDb2dVertex
 10
34.37413696237479
 20
39.68267494340922
 30
0.0
 42
-0.414213562373095
  0
VERTEX
  5
3E7
330
3E0
100
AcDbEntity
  8
预设值
100
AcDbVertex
100
AcDb2dVertex
 10
34.87413696237473
 20
39.18267494340928
 30
0.0
  0
VERTEX
  5
3E8
330
3E0
100
AcDbEntity
  8
预设值
100
AcDbVertex
100
AcDb2dVertex
 10
34.87413696237468
 20
26.18337494340916
 30
0.0
 42
-0.4142135623731257
  0
VERTEX
  5
3E9
330
3E0
100
AcDbEntity
  8
预设值
100
AcDbVertex
100
AcDb2dVertex
 10
34.37413696237479
 20
25.68337494340922
 30
0.0
  0
SEQEND
  5
3EA
330
3E0
100
AcDbEntity
  8
预设值
  0
CIRCLE
  5
3EB
330
1F
100
AcDbEntity
  8
预设值
100
AcDbCircle
 10
116.8871369623748
 20
68.99507494340922
 30
0.0
 40
1.10000000000008
  0
CIRCLE
  5
3EC
330
1F
100
AcDbEntity
  8
预设值
100
AcDbCircle
 10
116.8871369623748
 20
-56.01665505659078
 30
0.0
 40
1.10000000000008
  0
POLYLINE
  5
3ED
330
1F
100
AcDbEntity
  8
预设值
100
AcDb2dPolyline
 66
     1
 10
0.0
 20
0.0
 30
0.0
  0
VERTEX
  5
3EE
330
3ED
100
AcDbEntity
  8
预设值
100
AcDbVertex
100
AcDb2dVertex
 10
67.71163696237483
 20
6.633524943409228
 30
0.0
  0
VERTEX
  5
3EF
330
3ED
100
AcDbEntity
  8
预设值
100
AcDbVertex
100
AcDb2dVertex
 10
54.7126369623748
 20
6.633524943409213
 30
0.0
 42
-0.4142135623730887
  0
VERTEX
  5
3F0
330
3ED
100
AcDbEntity
  8
预设值
100
AcDbVertex
100
AcDb2dVertex
 10
54.2126369623748
 20
7.133524943409228
 30
0.0
  0
VERTEX
  5
3F1
330
3ED
100
AcDbEntity
  8
预设值
100
AcDbVertex
100
AcDb2dVertex
 10
54.2126369623748
 20
20.13252494340922
 30
0.0
 42
-0.4142135623730915
  0
VERTEX
  5
3F2
330
3ED
100
AcDbEntity
  8
预设值
100
AcDbVertex
100
AcDb2dVertex
 10
54.7126369623748
 20
20.63252494340922
 30
0.0
  0
VERTEX
  5
3F3
330
3ED
100
AcDbEntity
  8
预设值
100
AcDbVertex
100
AcDb2dVertex
 10
67.71163696237483
 20
20.63252494340922
 30
0.0
 42
-0.4142135623730965
  0
VERTEX
  5
3F4
330
3ED
100
AcDbEntity
  8
预设值
100
AcDbVertex
100
AcDb2dVertex
 10
68.21163696237483
 20
20.13252494340922
 30
0.0
  0
VERTEX
  5
3F5
330
3ED
100
AcDbEntity
  8
预设值
100
AcDbVertex
100
AcDb2dVertex
 10
68.21163696237483
 20
7.133524943409228
 30
0.0
 42
-0.4142135623730929
  0
VERTEX
  5
3F6
330
3ED
100
AcDbEntity
  8
预设值
100
AcDbVertex
100
AcDb2dVertex
 10
67.71163696237483
 20
6.633524943409228
 30
0.0
  0
SEQEND
  5
3F7
330
3ED
100
AcDbEntity
  8
预设值
  0
POLYLINE
  5
3F8
330
1F
100
AcDbEntity
  8
预设值
100
AcDb2dPolyline
 66
     1
 10
0.0
 20
0.0
 30
0.0
  0
VERTEX
  5
3F9
330
3F8
100
AcDbEntity
  8
预设值
100
AcDbVertex
100
AcDb2dVertex
 10
60.12713696237475
 20
1.004614922737098
 30
0.0
  0
VERTEX
  5
3FA
330
3F8
100
AcDbEntity
  8
预设值
100
AcDbVertex
100
AcDb2dVertex
 10
67.12713696237498
 20
1.004614922737069
 30
0.0
 42
-0.4142135623731065
  0
VERTEX
  5
3FB
330
3F8
100
AcDbEntity
  8
预设值
100
AcDbVertex
100
AcDb2dVertex
 10
67.62713696237498
 20
0.5046149227370833
 30
0.0
  0
VERTEX
  5
3FC
330
3F8
100
AcDbEntity
  8
预设值
100
AcDbVertex
100
AcDb2dVertex
 10
67.62713696237498
 20
-13.49538507726295
 30
0.0
 42
-0.414213562373092
  0
VERTEX
  5
3FD
330
3F8
100
AcDbEntity
  8
预设值
100
AcDbVertex
100
AcDb2dVertex
 10
67.12713696237498
 20
-13.99538507726295
 30
0.0
  0
VERTEX
  5
3FE
330
3F8
100
AcDbEntity
  8
预设值
100
AcDbVertex
100
AcDb2dVertex
 10
60.12713696237475
 20
-13.99538507726295
 30
0.0
 42
-0.414213562373098
  0
VERTEX
  5
3FF
330
3F8
100
AcDbEntity
  8
预设值
100
AcDbVertex
100
AcDb2dVertex
 10
59.62713696237475
 20
-13.49538507726295
 30
0.0
  0
VERTEX
  5
400
330
3F8
100
AcDbEntity
  8
预设值
100
AcDbVertex
100
AcDb2dVertex
 10
59.62713696237475
 20
0.5046149227371117
 30
0.0
 42
-0.4142135623730927
  0
VERTEX
  5
401
330
3F8
100
AcDbEntity
  8
预设值
100
AcDbVertex
100
AcDb2dVertex
 10
60.12713696237475
 20
1.004614922737112
 30
0.0
  0
SEQEND
  5
402
330
3F8
100
AcDbEntity
  8
预设值
  0
POLYLINE
  5
403
330
1F
100
AcDbEntity
  8
预设值
100
AcDb2dPolyline
 66
     1
 10
0.0
 20
0.0
 30
0.0
  0
VERTEX
  5
404
330
403
100
AcDbEntity
  8
预设值
100
AcDbVertex
100
AcDb2dVertex
 10
36.24713696237487
 20
1.004614922737069
 30
0.0
  0
VERTEX
  5
405
330
403
100
AcDbEntity
  8
预设值
100
AcDbVertex
100
AcDb2dVertex
 10
43.24713696237487
 20
1.004614922737069
 30
0.0
 42
-0.4142135623730954
  0
VERTEX
  5
406
330
403
100
AcDbEntity
  8
预设值
100
AcDbVertex
100
AcDb2dVertex
 10
43.74713696237481
 20
0.5046149227371259
 30
0.0
  0
VERTEX
  5
407
330
403
100
AcDbEntity
  8
预设值
100
AcDbVertex
100
AcDb2dVertex
 10
43.74713696237487
 20
-13.49538507726295
 30
0.0
 42
-0.414213562373092
  0
VERTEX
  5
408
330
403
100
AcDbEntity
  8
预设值
100
AcDbVertex
100
AcDb2dVertex
 10
43.24713696237487
 20
-13.99538507726295
 30
0.0
  0
VERTEX
  5
409
330
403
100
AcDbEntity
  8
预设值
100
AcDbVertex
100
AcDb2dVertex
 10
36.24713696237487
 20
-13.99538507726295
 30
0.0
 42
-0.414213562373098
  0
VERTEX
  5
40A
330
403
100
AcDbEntity
  8
预设值
100
AcDbVertex
100
AcDb2dVertex
 10
35.74713696237487
 20
-13.49538507726295
 30
0.0
  0
VERTEX
  5
40B
330
403
100
AcDbEntity
  8
预设值
100
AcDbVertex
100
AcDb2dVertex
 10
35.74713696237487
 20
0.5046149227371117
 30
0.0
 42
-0.4142135623730633
  0
VERTEX
  5
40C
330
403
100
AcDbEntity
  8
预设值
100
AcDbVertex
100
AcDb2dVertex
 10
36.24713696237487
 20
1.004614922737055
 30
0.0
  0
SEQEND
  5
40D
330
403
100
AcDbEntity
  8
预设值
  0
POLYLINE
  5
40E
330
1F
100
AcDbEntity
  8
预设值
100
AcDb2dPolyline
 66
     1
 10
0.0
 20
0.0
 30
0.0
  0
VERTEX
  5
40F
330
40E
100
AcDbEntity
  8
预设值
100
AcDbVertex
100
AcDb2dVertex
 10
45.18763696237491
 20
2.00391492273706
 30
0.0
  0
VERTEX
  5
410
330
40E
100
AcDbEntity
  8
预设值
100
AcDbVertex
100
AcDb2dVertex
 10
58.18663696237482
 20
2.003914922737088
 30
0.0
 42
-0.4142135623730974
  0
VERTEX
  5
411
330
40E
100
AcDbEntity
  8
预设值
100
AcDbVertex
100
AcDb2dVertex
 10
58.68663696237482
 20
1.503914922737088
 30
0.0
  0
VERTEX
  5
412
330
40E
100
AcDbEntity
  8
预设值
100
AcDbVertex
100
AcDb2dVertex
 10
58.68663696237482
 20
-11.49538507726292
 30
0.0
 42
-0.414213562373092
  0
VERTEX
  5
413
330
40E
100
AcDbEntity
  8
预设值
100
AcDbVertex
100
AcDb2dVertex
 10
58.18663696237482
 20
-11.99538507726292
 30
0.0
  0
VERTEX
  5
414
330
40E
100
AcDbEntity
  8
预设值
100
AcDbVertex
100
AcDb2dVertex
 10
45.1876369623748
 20
-11.99538507726293
 30
0.0
 42
-0.414213562372979
  0
VERTEX
  5
415
330
40E
100
AcDbEntity
  8
预设值
100
AcDbVertex
100
AcDb2dVertex
 10
44.68763696237491
 20
-11.49538507726285
 30
0.0
  0
VERTEX
  5
416
330
40E
100
AcDbEntity
  8
预设值
100
AcDbVertex
100
AcDb2dVertex
 10
44.6876369623748
 20
1.503914922737003
 30
0.0
 42
-0.4142135623730927
  0
VERTEX
  5
417
330
40E
100
AcDbEntity
  8
预设值
100
AcDbVertex
100
AcDb2dVertex
 10
45.1876369623748
 20
2.003914922737003
 30
0.0
  0
SEQEND
  5
418
330
40E
100
AcDbEntity
  8
预设值
  0
POLYLINE
  5
419
330
1F
100
AcDbEntity
  8
预设值
100
AcDb2dPolyline
 66
     1
 10
0.0
 20
0.0
 30
0.0
  0
VERTEX
  5
41A
330
419
100
AcDbEntity
  8
预设值
100
AcDbVertex
100
AcDb2dVertex
 10
57.74588696237473
 20
-18.46662505659074
 30
0.0
  0
VERTEX
  5
41B
330
419
100
AcDbEntity
  8
预设值
100
AcDbVertex
100
AcDb2dVertex
 10
64.74588696237495
 20
-18.46662505659077
 30
0.0
 42
-0.4142135623731058
  0
VERTEX
  5
41C
330
419
100
AcDbEntity
  8
预设值
100
AcDbVertex
100
AcDb2dVertex
 10
65.24588696237495
 20
-18.96662505659076
 30
0.0
  0
VERTEX
  5
41D
330
419
100
AcDbEntity
  8
预设值
100
AcDbVertex
100
AcDb2dVertex
 10
65.24588696237495
 20
-32.96662505659079
 30
0.0
 42
-0.414213562373095
  0
VERTEX
  5
41E
330
419
100
AcDbEntity
  8
预设值
100
AcDbVertex
100
AcDb2dVertex
 10
64.74588696237495
 20
-33.46662505659079
 30
0.0
  0
VERTEX
  5
41F
330
419
100
AcDbEntity
  8
预设值
100
AcDbVertex
100
AcDb2dVertex
 10
57.74588696237473
 20
-33.46662505659079
 30
0.0
 42
-0.414213562373095
  0
VERTEX
  5
420
330
419
100
AcDbEntity
  8
预设值
100
AcDbVertex
100
AcDb2dVertex
 10
57.24588696237473
 20
-32.96662505659079
 30
0.0
  0
VERTEX
  5
421
330
419
100
AcDbEntity
  8
预设值
100
AcDbVertex
100
AcDb2dVertex
 10
57.24588696237473
 20
-18.96662505659073
 30
0.0
 42
-0.4142135623730915
  0
VERTEX
  5
422
330
419
100
AcDbEntity
  8
预设值
100
AcDbVertex
100
AcDb2dVertex
 10
57.74588696237473
 20
-18.46662505659073
 30
0.0
  0
SEQEND
  5
423
330
419
100
AcDbEntity
  8
预设值
  0
POLYLINE
  5
424
330
1F
100
AcDbEntity
  8
预设值
100
AcDb2dPolyline
 66
     1
 10
0.0
 20
0.0
 30
0.0
  0
VERTEX
  5
425
330
424
100
AcDbEntity
  8
预设值
100
AcDbVertex
100
AcDb2dVertex
 10
33.86588696237484
 20
-18.46662505659077
 30
0.0
  0
VERTEX
  5
426
330
424
100
AcDbEntity
  8
预设值
100
AcDbVertex
100
AcDb2dVertex
 10
40.86588696237484
 20
-18.46662505659077
 30
0.0
 42
-0.414213562373095
  0
VERTEX
  5
427
330
424
100
AcDbEntity
  8
预设值
100
AcDbVertex
100
AcDb2dVertex
 10
41.36588696237479
 20
-18.96662505659071
 30
0.0
  0
VERTEX
  5
428
330
424
100
AcDbEntity
  8
预设值
100
AcDbVertex
100
AcDb2dVertex
 10
41.36588696237484
 20
-32.96662505659079
 30
0.0
 42
-0.414213562373095
  0
VERTEX
  5
429
330
424
100
AcDbEntity
  8
预设值
100
AcDbVertex
100
AcDb2dVertex
 10
40.86588696237484
 20
-33.46662505659079
 30
0.0
  0
VERTEX
  5
42A
330
424
100
AcDbEntity
  8
预设值
100
AcDbVertex
100
AcDb2dVertex
 10
33.86588696237484
 20
-33.46662505659079
 30
0.0
 42
-0.414213562373095
  0
VERTEX
  5
42B
330
424
100
AcDbEntity
  8
预设值
100
AcDbVertex
100
AcDb2dVertex
 10
33.36588696237484
 20
-32.96662505659079
 30
0.0
  0
VERTEX
  5
42C
330
424
100
AcDbEntity
  8
预设值
100
AcDbVertex
100
AcDb2dVertex
 10
33.36588696237484
 20
-18.96662505659073
 30
0.0
 42
-0.4142135623730644
  0
VERTEX
  5
42D
330
424
100
AcDbEntity
  8
预设值
100
AcDbVertex
100
AcDb2dVertex
 10
33.86588696237484
 20
-18.46662505659079
 30
0.0
  0
SEQEND
  5
42E
330
424
100
AcDbEntity
  8
预设值
  0
POLYLINE
  5
42F
330
1F
100
AcDbEntity
  8
预设值
100
AcDb2dPolyline
 66
     1
 10
0.0
 20
0.0
 30
0.0
  0
VERTEX
  5
430
330
42F
100
AcDbEntity
  8
预设值
100
AcDbVertex
100
AcDb2dVertex
 10
42.80638696237489
 20
-17.46732505659078
 30
0.0
  0
VERTEX
  5
431
330
42F
100
AcDbEntity
  8
预设值
100
AcDbVertex
100
AcDb2dVertex
 10
55.8053869623748
 20
-17.46732505659075
 30
0.0
 42
-0.4142135623730965
  0
VERTEX
  5
432
330
42F
100
AcDbEntity
  8
预设值
100
AcDbVertex
100
AcDb2dVertex
 10
56.3053869623748
 20
-17.96732505659075
 30
0.0
  0
VERTEX
  5
433
330
42F
100
AcDbEntity
  8
预设值
100
AcDbVertex
100
AcDb2dVertex
 10
56.3053869623748
 20
-30.96662505659076
 30
0.0
 42
-0.4142135623730915
  0
VERTEX
  5
434
330
42F
100
AcDbEntity
  8
预设值
100
AcDbVertex
100
AcDb2dVertex
 10
55.8053869623748
 20
-31.46662505659076
 30
0.0
  0
VERTEX
  5
435
330
42F
100
AcDbEntity
  8
预设值
100
AcDbVertex
100
AcDb2dVertex
 10
42.80638696237477
 20
-31.46662505659077
 30
0.0
 42
-0.4142135623729797
  0
VERTEX
  5
436
330
42F
100
AcDbEntity
  8
预设值
100
AcDbVertex
100
AcDb2dVertex
 10
42.30638696237489
 20
-30.96662505659069
 30
0.0
  0
VERTEX
  5
437
330
42F
100
AcDbEntity
  8
预设值
100
AcDbVertex
100
AcDb2dVertex
 10
42.30638696237477
 20
-17.96732505659084
 30
0.0
 42
-0.4142135623730915
  0
VERTEX
  5
438
330
42F
100
AcDbEntity
  8
预设值
100
AcDbVertex
100
AcDb2dVertex
 10
42.80638696237477
 20
-17.46732505659084
 30
0.0
  0
SEQEND
  5
439
330
42F
100
AcDbEntity
  8
预设值
  0
POLYLINE
  5
43A
330
1F
100
AcDbEntity
  8
预设值
100
AcDb2dPolyline
 66
     1
 10
0.0
 20
0.0
 30
0.0
  0
VERTEX
  5
43B
330
43A
100
AcDbEntity
  8
预设值
100
AcDbVertex
100
AcDb2dVertex
 10
-179.1886580376253
 20
-18.46662505659076
 30
0.0
  0
VERTEX
  5
43C
330
43A
100
AcDbEntity
  8
预设值
100
AcDbVertex
100
AcDb2dVertex
 10
-172.188658037625
 20
-18.46662505659077
 30
0.0
 42
-0.4142135623730965
  0
VERTEX
  5
43D
330
43A
100
AcDbEntity
  8
预设值
100
AcDbVertex
100
AcDb2dVertex
 10
-171.688658037625
 20
-18.96662505659077
 30
0.0
  0
VERTEX
  5
43E
330
43A
100
AcDbEntity
  8
预设值
100
AcDbVertex
100
AcDb2dVertex
 10
-171.688658037625
 20
-32.9666250565908
 30
0.0
 42
-0.414213562373095
  0
VERTEX
  5
43F
330
43A
100
AcDbEntity
  8
预设值
100
AcDbVertex
100
AcDb2dVertex
 10
-172.188658037625
 20
-33.4666250565908
 30
0.0
  0
VERTEX
  5
440
330
43A
100
AcDbEntity
  8
预设值
100
AcDbVertex
100
AcDb2dVertex
 10
-179.1886580376253
 20
-33.4666250565908
 30
0.0
 42
-0.414213562373095
  0
VERTEX
  5
441
330
43A
100
AcDbEntity
  8
预设值
100
AcDbVertex
100
AcDb2dVertex
 10
-179.6886580376253
 20
-32.9666250565908
 30
0.0
  0
VERTEX
  5
442
330
43A
100
AcDbEntity
  8
预设值
100
AcDbVertex
100
AcDb2dVertex
 10
-179.6886580376253
 20
-18.96662505659074
 30
0.0
 42
-0.4142135623730915
  0
VERTEX
  5
443
330
43A
100
AcDbEntity
  8
预设值
100
AcDbVertex
100
AcDb2dVertex
 10
-179.1886580376253
 20
-18.46662505659074
 30
0.0
  0
SEQEND
  5
444
330
43A
100
AcDbEntity
  8
预设值
  0
POLYLINE
  5
445
330
1F
100
AcDbEntity
  8
预设值
100
AcDb2dPolyline
 66
     1
 10
0.0
 20
0.0
 30
0.0
  0
VERTEX
  5
446
330
445
100
AcDbEntity
  8
预设值
100
AcDbVertex
100
AcDb2dVertex
 10
-203.0686580376251
 20
-18.46662505659079
 30
0.0
  0
VERTEX
  5
447
330
445
100
AcDbEntity
  8
预设值
100
AcDbVertex
100
AcDb2dVertex
 10
-196.0686580376251
 20
-18.46662505659079
 30
0.0
 42
-0.4142135623730833
  0
VERTEX
  5
448
330
445
100
AcDbEntity
  8
预设值
100
AcDbVertex
100
AcDb2dVertex
 10
-195.5686580376252
 20
-18.96662505659073
 30
0.0
  0
VERTEX
  5
449
330
445
100
AcDbEntity
  8
预设值
100
AcDbVertex
100
AcDb2dVertex
 10
-195.5686580376251
 20
-32.9666250565908
 30
0.0
 42
-0.414213562373095
  0
VERTEX
  5
44A
330
445
100
AcDbEntity
  8
预设值
100
AcDbVertex
100
AcDb2dVertex
 10
-196.0686580376251
 20
-33.4666250565908
 30
0.0
  0
VERTEX
  5
44B
330
445
100
AcDbEntity
  8
预设值
100
AcDbVertex
100
AcDb2dVertex
 10
-203.0686580376251
 20
-33.4666250565908
 30
0.0
 42
-0.414213562373095
  0
VERTEX
  5
44C
330
445
100
AcDbEntity
  8
预设值
100
AcDbVertex
100
AcDb2dVertex
 10
-203.5686580376251
 20
-32.9666250565908
 30
0.0
  0
VERTEX
  5
44D
330
445
100
AcDbEntity
  8
预设值
100
AcDbVertex
100
AcDb2dVertex
 10
-203.5686580376251
 20
-18.96662505659074
 30
0.0
 42
-0.4142135623730792
  0
VERTEX
  5
44E
330
445
100
AcDbEntity
  8
预设值
100
AcDbVertex
100
AcDb2dVertex
 10
-203.0686580376251
 20
-18.4666250565908
 30
0.0
  0
SEQEND
  5
44F
330
445
100
AcDbEntity
  8
预设值
  0
POLYLINE
  5
450
330
1F
100
AcDbEntity
  8
预设值
100
AcDb2dPolyline
 66
     1
 10
0.0
 20
0.0
 30
0.0
  0
VERTEX
  5
451
330
450
100
AcDbEntity
  8
预设值
100
AcDbVertex
100
AcDb2dVertex
 10
-194.1281580376251
 20
-17.46732505659079
 30
0.0
  0
VERTEX
  5
452
330
450
100
AcDbEntity
  8
预设值
100
AcDbVertex
100
AcDb2dVertex
 10
-181.1291580376252
 20
-17.46732505659077
 30
0.0
 42
-0.4142135623730965
  0
VERTEX
  5
453
330
450
100
AcDbEntity
  8
预设值
100
AcDbVertex
100
AcDb2dVertex
 10
-180.6291580376252
 20
-17.96732505659077
 30
0.0
  0
VERTEX
  5
454
330
450
100
AcDbEntity
  8
预设值
100
AcDbVertex
100
AcDb2dVertex
 10
-180.6291580376252
 20
-30.96662505659077
 30
0.0
 42
-0.4142135623730915
  0
VERTEX
  5
455
330
450
100
AcDbEntity
  8
预设值
100
AcDbVertex
100
AcDb2dVertex
 10
-181.1291580376252
 20
-31.46662505659077
 30
0.0
  0
VERTEX
  5
456
330
450
100
AcDbEntity
  8
预设值
100
AcDbVertex
100
AcDb2dVertex
 10
-194.1281580376252
 20
-31.46662505659079
 30
0.0
 42
-0.414213562372963
  0
VERTEX
  5
457
330
450
100
AcDbEntity
  8
预设值
100
AcDbVertex
100
AcDb2dVertex
 10
-194.6281580376251
 20
-30.9666250565907
 30
0.0
  0
VERTEX
  5
458
330
450
100
AcDbEntity
  8
预设值
100
AcDbVertex
100
AcDb2dVertex
 10
-194.6281580376252
 20
-17.96732505659085
 30
0.0
 42
-0.4142135623730915
  0
VERTEX
  5
459
330
450
100
AcDbEntity
  8
预设值
100
AcDbVertex
100
AcDb2dVertex
 10
-194.1281580376252
 20
-17.46732505659085
 30
0.0
  0
SEQEND
  5
45A
330
450
100
AcDbEntity
  8
预设值
  0
POLYLINE
  5
45B
330
1F
100
AcDbEntity
  8
预设值
100
AcDb2dPolyline
 66
     1
 10
0.0
 20
0.0
 30
0.0
  0
VERTEX
  5
45C
330
45B
100
AcDbEntity
  8
预设值
100
AcDbVertex
100
AcDb2dVertex
 10
70.09288696237482
 20
-50.71639005659077
 30
0.0
  0
VERTEX
  5
45D
330
45B
100
AcDbEntity
  8
预设值
100
AcDbVertex
100
AcDb2dVertex
 10
57.0938869623748
 20
-50.71639005659078
 30
0.0
 42
-0.4142135623730901
  0
VERTEX
  5
45E
330
45B
100
AcDbEntity
  8
预设值
100
AcDbVertex
100
AcDb2dVertex
 10
56.5938869623748
 20
-50.21639005659077
 30
0.0
  0
VERTEX
  5
45F
330
45B
100
AcDbEntity
  8
预设值
100
AcDbVertex
100
AcDb2dVertex
 10
56.5938869623748
 20
-37.21739005659077
 30
0.0
 42
-0.414213562373095
  0
VERTEX
  5
460
330
45B
100
AcDbEntity
  8
预设值
100
AcDbVertex
100
AcDb2dVertex
 10
57.0938869623748
 20
-36.71739005659077
 30
0.0
  0
VERTEX
  5
461
330
45B
100
AcDbEntity
  8
预设值
100
AcDbVertex
100
AcDb2dVertex
 10
70.09288696237482
 20
-36.71739005659077
 30
0.0
 42
-0.414213562373095
  0
VERTEX
  5
462
330
45B
100
AcDbEntity
  8
预设值
100
AcDbVertex
100
AcDb2dVertex
 10
70.59288696237482
 20
-37.21739005659077
 30
0.0
  0
VERTEX
  5
463
330
45B
100
AcDbEntity
  8
预设值
100
AcDbVertex
100
AcDb2dVertex
 10
70.59288696237482
 20
-50.21639005659077
 30
0.0
 42
-0.414213562373095
  0
VERTEX
  5
464
330
45B
100
AcDbEntity
  8
预设值
100
AcDbVertex
100
AcDb2dVertex
 10
70.09288696237482
 20
-50.71639005659077
 30
0.0
  0
SEQEND
  5
465
330
45B
100
AcDbEntity
  8
预设值
  0
POLYLINE
  5
466
330
1F
100
AcDbEntity
  8
预设值
100
AcDb2dPolyline
 66
     1
 10
0.0
 20
0.0
 30
0.0
  0
VERTEX
  5
467
330
466
100
AcDbEntity
  8
预设值
100
AcDbVertex
100
AcDb2dVertex
 10
33.28138696237485
 20
-50.71639005659077
 30
0.0
  0
VERTEX
  5
468
330
466
100
AcDbEntity
  8
预设值
100
AcDbVertex
100
AcDb2dVertex
 10
46.28038696237488
 20
-50.71639005659078
 30
0.0
 42
0.4142135623730901
  0
VERTEX
  5
469
330
466
100
AcDbEntity
  8
预设值
100
AcDbVertex
100
AcDb2dVertex
 10
46.78038696237488
 20
-50.21639005659077
 30
0.0
  0
VERTEX
  5
46A
330
466
100
AcDbEntity
  8
预设值
100
AcDbVertex
100
AcDb2dVertex
 10
46.78038696237488
 20
-37.21739005659077
 30
0.0
 42
0.414213562373095
  0
VERTEX
  5
46B
330
466
100
AcDbEntity
  8
预设值
100
AcDbVertex
100
AcDb2dVertex
 10
46.28038696237488
 20
-36.71739005659077
 30
0.0
  0
VERTEX
  5
46C
330
466
100
AcDbEntity
  8
预设值
100
AcDbVertex
100
AcDb2dVertex
 10
33.28138696237485
 20
-36.71739005659077
 30
0.0
 42
0.414213562373095
  0
VERTEX
  5
46D
330
466
100
AcDbEntity
  8
预设值
100
AcDbVertex
100
AcDb2dVertex
 10
32.78138696237485
 20
-37.21739005659077
 30
0.0
  0
VERTEX
  5
46E
330
466
100
AcDbEntity
  8
预设值
100
AcDbVertex
100
AcDb2dVertex
 10
32.78138696237485
 20
-50.21639005659077
 30
0.0
 42
0.414213562373095
  0
VERTEX
  5
46F
330
466
100
AcDbEntity
  8
预设值
100
AcDbVertex
100
AcDb2dVertex
 10
33.28138696237485
 20
-50.71639005659077
 30
0.0
  0
SEQEND
  5
470
330
466
100
AcDbEntity
  8
预设值
  0
POLYLINE
  5
471
330
1F
100
AcDbEntity
  8
预设值
100
AcDb2dPolyline
 66
     1
 10
0.0
 20
0.0
 30
0.0
  0
VERTEX
  5
472
330
471
100
AcDbEntity
  8
预设值
100
AcDbVertex
100
AcDb2dVertex
 10
22.46788696237493
 20
-50.71639005659077
 30
0.0
  0
VERTEX
  5
473
330
471
100
AcDbEntity
  8
预设值
100
AcDbVertex
100
AcDb2dVertex
 10
9.46888696237491
 20
-50.71639005659078
 30
0.0
 42
-0.4142135623730883
  0
VERTEX
  5
474
330
471
100
AcDbEntity
  8
预设值
100
AcDbVertex
100
AcDb2dVertex
 10
8.96888696237491
 20
-50.21639005659077
 30
0.0
  0
VERTEX
  5
475
330
471
100
AcDbEntity
  8
预设值
100
AcDbVertex
100
AcDb2dVertex
 10
8.96888696237491
 20
-37.21739005659077
 30
0.0
 42
-0.414213562373098
  0
VERTEX
  5
476
330
471
100
AcDbEntity
  8
预设值
100
AcDbVertex
100
AcDb2dVertex
 10
9.46888696237491
 20
-36.71739005659077
 30
0.0
  0
VERTEX
  5
477
330
471
100
AcDbEntity
  8
预设值
100
AcDbVertex
100
AcDb2dVertex
 10
22.46788696237493
 20
-36.71739005659077
 30
0.0
 42
-0.4142135623730915
  0
VERTEX
  5
478
330
471
100
AcDbEntity
  8
预设值
100
AcDbVertex
100
AcDb2dVertex
 10
22.96788696237493
 20
-37.21739005659077
 30
0.0
  0
VERTEX
  5
479
330
471
100
AcDbEntity
  8
预设值
100
AcDbVertex
100
AcDb2dVertex
 10
22.96788696237493
 20
-50.21639005659077
 30
0.0
 42
-0.4142135623730965
  0
VERTEX
  5
47A
330
471
100
AcDbEntity
  8
预设值
100
AcDbVertex
100
AcDb2dVertex
 10
22.46788696237493
 20
-50.71639005659077
 30
0.0
  0
SEQEND
  5
47B
330
471
100
AcDbEntity
  8
预设值
  0
POLYLINE
  5
47C
330
1F
100
AcDbEntity
  8
预设值
100
AcDb2dPolyline
 66
     1
 10
0.0
 20
0.0
 30
0.0
  0
VERTEX
  5
47D
330
47C
100
AcDbEntity
  8
预设值
100
AcDbVertex
100
AcDb2dVertex
 10
-14.34361303762503
 20
-50.71639005659077
 30
0.0
  0
VERTEX
  5
47E
330
47C
100
AcDbEntity
  8
预设值
100
AcDbVertex
100
AcDb2dVertex
 10
-1.34461303762501
 20
-50.71639005659078
 30
0.0
 42
0.4142135623730884
  0
VERTEX
  5
47F
330
47C
100
AcDbEntity
  8
预设值
100
AcDbVertex
100
AcDb2dVertex
 10
-0.8446130376250096
 20
-50.21639005659077
 30
0.0
  0
VERTEX
  5
480
330
47C
100
AcDbEntity
  8
预设值
100
AcDbVertex
100
AcDb2dVertex
 10
-0.8446130376250096
 20
-37.21739005659077
 30
0.0
 42
0.4142135623730974
  0
VERTEX
  5
481
330
47C
100
AcDbEntity
  8
预设值
100
AcDbVertex
100
AcDb2dVertex
 10
-1.34461303762501
 20
-36.71739005659077
 30
0.0
  0
VERTEX
  5
482
330
47C
100
AcDbEntity
  8
预设值
100
AcDbVertex
100
AcDb2dVertex
 10
-14.34361303762503
 20
-36.71739005659077
 30
0.0
 42
0.414213562373092
  0
VERTEX
  5
483
330
47C
100
AcDbEntity
  8
预设值
100
AcDbVertex
100
AcDb2dVertex
 10
-14.84361303762503
 20
-37.21739005659077
 30
0.0
  0
VERTEX
  5
484
330
47C
100
AcDbEntity
  8
预设值
100
AcDbVertex
100
AcDb2dVertex
 10
-14.84361303762503
 20
-50.21639005659077
 30
0.0
 42
0.414213562373098
  0
VERTEX
  5
485
330
47C
100
AcDbEntity
  8
预设值
100
AcDbVertex
100
AcDb2dVertex
 10
-14.34361303762503
 20
-50.71639005659077
 30
0.0
  0
SEQEND
  5
486
330
47C
100
AcDbEntity
  8
预设值
  0
POLYLINE
  5
487
330
1F
100
AcDbEntity
  8
预设值
100
AcDb2dPolyline
 66
     1
 10
0.0
 20
0.0
 30
0.0
  0
VERTEX
  5
488
330
487
100
AcDbEntity
  8
预设值
100
AcDbVertex
100
AcDb2dVertex
 10
-204.8439630376253
 20
-50.71639005659077
 30
0.0
  0
VERTEX
  5
489
330
487
100
AcDbEntity
  8
预设值
100
AcDbVertex
100
AcDb2dVertex
 10
-191.8449630376253
 20
-50.71639005659077
 30
0.0
 42
0.414213562373095
  0
VERTEX
  5
48A
330
487
100
AcDbEntity
  8
预设值
100
AcDbVertex
100
AcDb2dVertex
 10
-191.3449630376253
 20
-50.21639005659077
 30
0.0
  0
VERTEX
  5
48B
330
487
100
AcDbEntity
  8
预设值
100
AcDbVertex
100
AcDb2dVertex
 10
-191.3449630376253
 20
-37.21739005659077
 30
0.0
 42
0.414213562373095
  0
VERTEX
  5
48C
330
487
100
AcDbEntity
  8
预设值
100
AcDbVertex
100
AcDb2dVertex
 10
-191.8449630376253
 20
-36.71739005659077
 30
0.0
  0
VERTEX
  5
48D
330
487
100
AcDbEntity
  8
预设值
100
AcDbVertex
100
AcDb2dVertex
 10
-204.8439630376253
 20
-36.71739005659077
 30
0.0
 42
0.414213562373095
  0
VERTEX
  5
48E
330
487
100
AcDbEntity
  8
预设值
100
AcDbVertex
100
AcDb2dVertex
 10
-205.3439630376253
 20
-37.21739005659077
 30
0.0
  0
VERTEX
  5
48F
330
487
100
AcDbEntity
  8
预设值
100
AcDbVertex
100
AcDb2dVertex
 10
-205.3439630376253
 20
-50.21639005659077
 30
0.0
 42
0.414213562373095
  0
VERTEX
  5
490
330
487
100
AcDbEntity
  8
预设值
100
AcDbVertex
100
AcDb2dVertex
 10
-204.8439630376253
 20
-50.71639005659077
 30
0.0
  0
SEQEND
  5
491
330
487
100
AcDbEntity
  8
预设值
  0
POLYLINE
  5
492
330
1F
100
AcDbEntity
  8
预设值
100
AcDb2dPolyline
 66
     1
 10
0.0
 20
0.0
 30
0.0
  0
VERTEX
  5
493
330
492
100
AcDbEntity
  8
预设值
100
AcDbVertex
100
AcDb2dVertex
 10
-168.0324630376253
 20
-50.71639005659077
 30
0.0
  0
VERTEX
  5
494
330
492
100
AcDbEntity
  8
预设值
100
AcDbVertex
100
AcDb2dVertex
 10
-181.0314630376253
 20
-50.71639005659077
 30
0.0
 42
-0.414213562373095
  0
VERTEX
  5
495
330
492
100
AcDbEntity
  8
预设值
100
AcDbVertex
100
AcDb2dVertex
 10
-181.5314630376253
 20
-50.21639005659077
 30
0.0
  0
VERTEX
  5
496
330
492
100
AcDbEntity
  8
预设值
100
AcDbVertex
100
AcDb2dVertex
 10
-181.5314630376253
 20
-37.21739005659077
 30
0.0
 42
-0.414213562373095
  0
VERTEX
  5
497
330
492
100
AcDbEntity
  8
预设值
100
AcDbVertex
100
AcDb2dVertex
 10
-181.0314630376253
 20
-36.71739005659077
 30
0.0
  0
VERTEX
  5
498
330
492
100
AcDbEntity
  8
预设值
100
AcDbVertex
100
AcDb2dVertex
 10
-168.0324630376253
 20
-36.71739005659077
 30
0.0
 42
-0.414213562373095
  0
VERTEX
  5
499
330
492
100
AcDbEntity
  8
预设值
100
AcDbVertex
100
AcDb2dVertex
 10
-167.5324630376253
 20
-37.21739005659077
 30
0.0
  0
VERTEX
  5
49A
330
492
100
AcDbEntity
  8
预设值
100
AcDbVertex
100
AcDb2dVertex
 10
-167.5324630376253
 20
-50.21639005659077
 30
0.0
 42
-0.414213562373095
  0
VERTEX
  5
49B
330
492
100
AcDbEntity
  8
预设值
100
AcDbVertex
100
AcDb2dVertex
 10
-168.0324630376253
 20
-50.71639005659077
 30
0.0
  0
SEQEND
  5
49C
330
492
100
AcDbEntity
  8
预设值
  0
POLYLINE
  5
49D
330
1F
100
AcDbEntity
  8
预设值
100
AcDb2dPolyline
 66
     1
 10
0.0
 20
0.0
 30
0.0
  0
VERTEX
  5
49E
330
49D
100
AcDbEntity
  8
预设值
100
AcDbVertex
100
AcDb2dVertex
 10
-157.2189630376255
 20
-50.71639005659077
 30
0.0
  0
VERTEX
  5
49F
330
49D
100
AcDbEntity
  8
预设值
100
AcDbVertex
100
AcDb2dVertex
 10
-144.2199630376255
 20
-50.71639005659077
 30
0.0
 42
0.414213562373095
  0
VERTEX
  5
4A0
330
49D
100
AcDbEntity
  8
预设值
100
AcDbVertex
100
AcDb2dVertex
 10
-143.7199630376255
 20
-50.21639005659077
 30
0.0
  0
VERTEX
  5
4A1
330
49D
100
AcDbEntity
  8
预设值
100
AcDbVertex
100
AcDb2dVertex
 10
-143.7199630376255
 20
-37.21739005659077
 30
0.0
 42
0.414213562373095
  0
VERTEX
  5
4A2
330
49D
100
AcDbEntity
  8
预设值
100
AcDbVertex
100
AcDb2dVertex
 10
-144.2199630376255
 20
-36.71739005659077
 30
0.0
  0
VERTEX
  5
4A3
330
49D
100
AcDbEntity
  8
预设值
100
AcDbVertex
100
AcDb2dVertex
 10
-157.2189630376255
 20
-36.71739005659077
 30
0.0
 42
0.414213562373095
  0
VERTEX
  5
4A4
330
49D
100
AcDbEntity
  8
预设值
100
AcDbVertex
100
AcDb2dVertex
 10
-157.7189630376255
 20
-37.21739005659077
 30
0.0
  0
VERTEX
  5
4A5
330
49D
100
AcDbEntity
  8
预设值
100
AcDbVertex
100
AcDb2dVertex
 10
-157.7189630376255
 20
-50.21639005659077
 30
0.0
 42
0.414213562373095
  0
VERTEX
  5
4A6
330
49D
100
AcDbEntity
  8
预设值
100
AcDbVertex
100
AcDb2dVertex
 10
-157.2189630376255
 20
-50.71639005659077
 30
0.0
  0
SEQEND
  5
4A7
330
49D
100
AcDbEntity
  8
预设值
  0
POLYLINE
  5
4A8
330
1F
100
AcDbEntity
  8
预设值
100
AcDb2dPolyline
 66
     1
 10
0.0
 20
0.0
 30
0.0
  0
VERTEX
  5
4A9
330
4A8
100
AcDbEntity
  8
预设值
100
AcDbVertex
100
AcDb2dVertex
 10
-85.78128803762507
 20
-36.71724005659078
 30
0.0
  0
VERTEX
  5
4AA
330
4A8
100
AcDbEntity
  8
预设值
100
AcDbVertex
100
AcDb2dVertex
 10
-72.78228803762516
 20
-36.71724005659075
 30
0.0
 42
-0.414213562373095
  0
VERTEX
  5
4AB
330
4A8
100
AcDbEntity
  8
预设值
100
AcDbVertex
100
AcDb2dVertex
 10
-72.28228803762516
 20
-37.21724005659075
 30
0.0
  0
VERTEX
  5
4AC
330
4A8
100
AcDbEntity
  8
预设值
100
AcDbVertex
100
AcDb2dVertex
 10
-72.28228803762516
 20
-50.21654005659076
 30
0.0
 42
-0.414213562373095
  0
VERTEX
  5
4AD
330
4A8
100
AcDbEntity
  8
预设值
100
AcDbVertex
100
AcDb2dVertex
 10
-72.78228803762516
 20
-50.71654005659076
 30
0.0
  0
VERTEX
  5
4AE
330
4A8
100
AcDbEntity
  8
预设值
100
AcDbVertex
100
AcDb2dVertex
 10
-85.78128803762519
 20
-50.71654005659077
 30
0.0
 42
-0.4142135623729773
  0
VERTEX
  5
4AF
330
4A8
100
AcDbEntity
  8
预设值
100
AcDbVertex
100
AcDb2dVertex
 10
-86.28128803762507
 20
-50.21654005659069
 30
0.0
  0
VERTEX
  5
4B0
330
4A8
100
AcDbEntity
  8
预设值
100
AcDbVertex
100
AcDb2dVertex
 10
-86.28128803762519
 20
-37.21724005659084
 30
0.0
 42
-0.414213562373095
  0
VERTEX
  5
4B1
330
4A8
100
AcDbEntity
  8
预设值
100
AcDbVertex
100
AcDb2dVertex
 10
-85.78128803762519
 20
-36.71724005659084
 30
0.0
  0
SEQEND
  5
4B2
330
4A8
100
AcDbEntity
  8
预设值
  0
POLYLINE
  5
4B3
330
1F
100
AcDbEntity
  8
预设值
100
AcDb2dPolyline
 66
     1
 10
0.0
 20
0.0
 30
0.0
  0
VERTEX
  5
4B4
330
4B3
100
AcDbEntity
  8
预设值
100
AcDbVertex
100
AcDb2dVertex
 10
-132.7817880376252
 20
-37.71654005673506
 30
0.0
  0
VERTEX
  5
4B5
330
4B3
100
AcDbEntity
  8
预设值
100
AcDbVertex
100
AcDb2dVertex
 10
-125.7817880376252
 20
-37.71654005673506
 30
0.0
 42
-0.4142135623730974
  0
VERTEX
  5
4B6
330
4B3
100
AcDbEntity
  8
预设值
100
AcDbVertex
100
AcDb2dVertex
 10
-125.2817880376252
 20
-38.216540056735
 30
0.0
  0
VERTEX
  5
4B7
330
4B3
100
AcDbEntity
  8
预设值
100
AcDbVertex
100
AcDb2dVertex
 10
-125.2817880376252
 20
-52.21654005673507
 30
0.0
 42
-0.414213562373095
  0
VERTEX
  5
4B8
330
4B3
100
AcDbEntity
  8
预设值
100
AcDbVertex
100
AcDb2dVertex
 10
-125.7817880376252
 20
-52.71654005673507
 30
0.0
  0
VERTEX
  5
4B9
330
4B3
100
AcDbEntity
  8
预设值
100
AcDbVertex
100
AcDb2dVertex
 10
-132.7817880376252
 20
-52.71654005673507
 30
0.0
 42
-0.414213562373095
  0
VERTEX
  5
4BA
330
4B3
100
AcDbEntity
  8
预设值
100
AcDbVertex
100
AcDb2dVertex
 10
-133.2817880376252
 20
-52.21654005673507
 30
0.0
  0
VERTEX
  5
4BB
330
4B3
100
AcDbEntity
  8
预设值
100
AcDbVertex
100
AcDb2dVertex
 10
-133.2817880376252
 20
-38.21654005673501
 30
0.0
 42
-0.4142135623730755
  0
VERTEX
  5
4BC
330
4B3
100
AcDbEntity
  8
预设值
100
AcDbVertex
100
AcDb2dVertex
 10
-132.7817880376252
 20
-37.71654005673507
 30
0.0
  0
SEQEND
  5
4BD
330
4B3
100
AcDbEntity
  8
预设值
  0
POLYLINE
  5
4BE
330
1F
100
AcDbEntity
  8
预设值
100
AcDb2dPolyline
 66
     1
 10
0.0
 20
0.0
 30
0.0
  0
VERTEX
  5
4BF
330
4BE
100
AcDbEntity
  8
预设值
100
AcDbVertex
100
AcDb2dVertex
 10
-32.78178803762529
 20
-37.71654005659074
 30
0.0
  0
VERTEX
  5
4C0
330
4BE
100
AcDbEntity
  8
预设值
100
AcDbVertex
100
AcDb2dVertex
 10
-25.78178803762506
 20
-37.71654005659077
 30
0.0
 42
-0.4142135623731053
  0
VERTEX
  5
4C1
330
4BE
100
AcDbEntity
  8
预设值
100
AcDbVertex
100
AcDb2dVertex
 10
-25.28178803762506
 20
-38.21654005659076
 30
0.0
  0
VERTEX
  5
4C2
330
4BE
100
AcDbEntity
  8
预设值
100
AcDbVertex
100
AcDb2dVertex
 10
-25.28178803762506
 20
-52.21654005659079
 30
0.0
 42
-0.4142135623730965
  0
VERTEX
  5
4C3
330
4BE
100
AcDbEntity
  8
预设值
100
AcDbVertex
100
AcDb2dVertex
 10
-25.78178803762506
 20
-52.71654005659079
 30
0.0
  0
VERTEX
  5
4C4
330
4BE
100
AcDbEntity
  8
预设值
100
AcDbVertex
100
AcDb2dVertex
 10
-32.78178803762529
 20
-52.71654005659079
 30
0.0
 42
-0.414213562373095
  0
VERTEX
  5
4C5
330
4BE
100
AcDbEntity
  8
预设值
100
AcDbVertex
100
AcDb2dVertex
 10
-33.28178803762529
 20
-52.21654005659079
 30
0.0
  0
VERTEX
  5
4C6
330
4BE
100
AcDbEntity
  8
预设值
100
AcDbVertex
100
AcDb2dVertex
 10
-33.28178803762529
 20
-38.21654005659073
 30
0.0
 42
-0.414213562373095
  0
VERTEX
  5
4C7
330
4BE
100
AcDbEntity
  8
预设值
100
AcDbVertex
100
AcDb2dVertex
 10
-32.78178803762529
 20
-37.71654005659073
 30
0.0
  0
SEQEND
  5
4C8
330
4BE
100
AcDbEntity
  8
预设值
  0
ENDSEC
  0
SECTION
  2
OBJECTS
  0
DICTIONARY
  5
C
330
0
100
AcDbDictionary
281
     1
  3
ACAD_GROUP
350
D
  3
ACAD_LAYOUT
350
1A
  3
ACAD_MATERIAL
350
3B
  3
ACAD_MLEADERSTYLE
350
4F3
  3
ACAD_MLINESTYLE
350
17
  3
ACAD_PLOTSETTINGS
350
19
  3
ACAD_PLOTSTYLENAME
350
E
  3
ACAD_SCALELIST
350
3F
  3
ACAD_TABLESTYLE
350
4F2
  3
ACAD_VISUALSTYLE
350
2A
  3
AcDbVariableDictionary
350
4C9
  0
DICTIONARY
  5
D
102
{ACAD_REACTORS
330
C
102
}
330
C
100
AcDbDictionary
281
     1
  0
DICTIONARY
  5
1A
102
{ACAD_REACTORS
330
C
102
}
330
C
100
AcDbDictionary
281
     1
  3
Layout1
350
1E
  3
Layout2
350
26
  3
Model
350
22
  0
DICTIONARY
  5
3B
102
{ACAD_REACTORS
330
C
102
}
330
C
100
AcDbDictionary
281
     1
  3
ByBlock
350
3D
  3
ByLayer
350
3C
  3
Global
350
3E
  0
DICTIONARY
  5
4F3
102
{ACAD_REACTORS
330
C
102
}
330
C
100
AcDbDictionary
281
     1
  0
DICTIONARY
  5
17
102
{ACAD_REACTORS
330
C
102
}
330
C
100
AcDbDictionary
281
     1
  3
Standard
350
18
  0
DICTIONARY
  5
19
102
{ACAD_REACTORS
330
C
102
}
330
C
100
AcDbDictionary
281
     1
  0
ACDBDICTIONARYWDFLT
  5
E
102
{ACAD_REACTORS
330
C
102
}
330
C
100
AcDbDictionary
281
     1
  3
Normal
350
F
100
AcDbDictionaryWithDefault
340
F
  0
DICTIONARY
  5
3F
102
{ACAD_REACTORS
330
C
102
}
330
C
100
AcDbDictionary
281
     1
  3
A0
350
40
  3
A1
350
41
  3
A2
350
42
  3
A3
350
43
  3
A4
350
44
  3
A5
350
45
  3
A6
350
46
  3
A7
350
47
  3
A8
350
48
  3
A9
350
49
  3
B0
350
4A
  3
B1
350
4B
  3
B2
350
4C
  3
B3
350
4D
  3
B4
350
4E
  3
B5
350
4F
  3
B6
350
50
  3
B7
350
51
  3
B8
350
52
  3
B9
350
53
  3
C0
350
54
  3
C1
350
55
  3
C2
350
56
  3
C3
350
57
  3
C4
350
58
  3
C5
350
59
  3
C6
350
5A
  3
C7
350
5B
  3
C8
350
5C
  3
C9
350
5D
  3
D0
350
5E
  3
D1
350
5F
  3
D2
350
60
  0
DICTIONARY
  5
4F2
102
{ACAD_REACTORS
330
C
102
}
330
C
100
AcDbDictionary
281
     1
  0
DICTIONARY
  5
2A
102
{ACAD_REACTORS
330
C
102
}
330
C
100
AcDbDictionary
281
     1
  3
2dWireframe
350
2F
  3
3D Hidden
350
31
  3
3dWireframe
350
30
  3
Basic
350
32
  3
Brighten
350
36
  3
ColorChange
350
3A
  3
Conceptual
350
34
  3
Dim
350
35
  3
Facepattern
350
39
  3
Flat
350
2B
  3
FlatWithEdges
350
2C
  3
Gouraud
350
2D
  3
GouraudWithEdges
350
2E
  3
Linepattern
350
38
  3
Realistic
350
33
  3
Thicken
350
37
  0
DICTIONARY
  5
4C9
102
{ACAD_REACTORS
330
C
102
}
330
C
100
AcDbDictionary
281
     1
  3
CANNOSCALE
350
4CA
  3
MSLTSCALE
350
4CB
  0
LAYOUT
  5
1E
102
{ACAD_REACTORS
330
1A
102
}
330
1A
100
AcDbPlotSettings
  1

  2
none_device
  4

  6

 40
0.0
 41
0.0
 42
0.0
 43
0.0
 44
0.0
 45
0.0
 46
0.0
 47
0.0
 48
0.0
 49
0.0
140
0.0
141
0.0
142
1.0
143
1.0
 70
   688
 72
     0
 73
     0
 74
     5
  7

 75
    16
 76
     0
 77
     2
 78
   300
147
1.0
148
0.0
149
0.0
100
AcDbLayout
  1
Layout1
 70
     1
 71
     1
 10
0.0
 20
0.0
 11
12.0
 21
9.0
 12
0.0
 22
0.0
 32
0.0
 14
1.000000000000000E+20
 24
1.000000000000000E+20
 34
1.000000000000000E+20
 15
-1.000000000000000E+20
 25
-1.000000000000000E+20
 35
-1.000000000000000E+20
146
0.0
 13
0.0
 23
0.0
 33
0.0
 16
1.0
 26
0.0
 36
0.0
 17
0.0
 27
1.0
 37
0.0
 76
     0
330
1B
  0
LAYOUT
  5
26
102
{ACAD_REACTORS
330
1A
102
}
330
1A
100
AcDbPlotSettings
  1

  2
none_device
  4

  6

 40
0.0
 41
0.0
 42
0.0
 43
0.0
 44
0.0
 45
0.0
 46
0.0
 47
0.0
 48
0.0
 49
0.0
140
0.0
141
0.0
142
1.0
143
1.0
 70
   688
 72
     0
 73
     0
 74
     5
  7

 75
    16
 76
     0
 77
     2
 78
   300
147
1.0
148
0.0
149
0.0
100
AcDbLayout
  1
Layout2
 70
     1
 71
     2
 10
0.0
 20
0.0
 11
0.0
 21
0.0
 12
0.0
 22
0.0
 32
0.0
 14
0.0
 24
0.0
 34
0.0
 15
0.0
 25
0.0
 35
0.0
146
0.0
 13
0.0
 23
0.0
 33
0.0
 16
1.0
 26
0.0
 36
0.0
 17
0.0
 27
1.0
 37
0.0
 76
     0
330
23
  0
LAYOUT
  5
22
102
{ACAD_REACTORS
330
1A
102
}
330
1A
100
AcDbPlotSettings
  1

  2
none_device
  4
Letter_(8.50_x_11.00_Inches)
  6

 40
6.35
 41
6.35
 42
6.35000508
 43
6.35000508
 44
215.9
 45
279.4
 46
0.0
 47
0.0
 48
0.0
 49
0.0
140
0.0
141
0.0
142
1.0
143
1.0
 70
  1712
 72
     0
 73
     0
 74
     0
  7

 75
     0
 76
     0
 77
     2
 78
   300
147
1.0
148
0.0
149
0.0
100
AcDbLayout
  1
Model
 70
     1
 71
     0
 10
0.0
 20
0.0
 11
12.0
 21
9.0
 12
0.0
 22
0.0
 32
0.0
 14
-211.7252130376253
 24
-58.01665505659157
 34
-0.0000000000000001
 15
138.8871369623748
 25
70.99507494340926
 35
0.0
146
0.0
 13
0.0
 23
0.0
 33
0.0
 16
1.0
 26
0.0
 36
0.0
 17
0.0
 27
1.0
 37
0.0
 76
     0
330
1F
331
29
  0
MATERIAL
  5
3D
102
{ACAD_REACTORS
330
3B
102
}
102
{ACAD_XDICTIONARY
360
4EE
102
}
330
3B
100
AcDbMaterial
  1
ByBlock
  0
MATERIAL
  5
3C
102
{ACAD_REACTORS
330
3B
102
}
102
{ACAD_XDICTIONARY
360
4EC
102
}
330
3B
100
AcDbMaterial
  1
ByLayer
  0
MATERIAL
  5
3E
102
{ACAD_REACTORS
330
3B
102
}
102
{ACAD_XDICTIONARY
360
4F0
102
}
330
3B
100
AcDbMaterial
  1
Global
  0
MLINESTYLE
  5
18
102
{ACAD_REACTORS
330
17
102
}
330
17
100
AcDbMlineStyle
  2
Standard
 70
     0
  3

 62
   256
 51
90.0
 52
90.0
 71
     2
 49
0.5
 62
   256
  6
BYLAYER
 49
-0.5
 62
   256
  6
BYLAYER
  0
ACDBPLACEHOLDER
  5
F
102
{ACAD_REACTORS
330
E
102
}
330
E
  0
SCALE
  5
40
102
{ACAD_REACTORS
330
3F
102
}
330
3F
100
AcDbScale
 70
     0
300
1:1
140
1.0
141
1.0
290
     1
  0
SCALE
  5
41
102
{ACAD_REACTORS
330
3F
102
}
330
3F
100
AcDbScale
 70
     0
300
1:2
140
1.0
141
2.0
290
     0
  0
SCALE
  5
42
102
{ACAD_REACTORS
330
3F
102
}
330
3F
100
AcDbScale
 70
     0
300
1:4
140
1.0
141
4.0
290
     0
  0
SCALE
  5
43
102
{ACAD_REACTORS
330
3F
102
}
330
3F
100
AcDbScale
 70
     0
300
1:5
140
1.0
141
5.0
290
     0
  0
SCALE
  5
44
102
{ACAD_REACTORS
330
3F
102
}
330
3F
100
AcDbScale
 70
     0
300
1:8
140
1.0
141
8.0
290
     0
  0
SCALE
  5
45
102
{ACAD_REACTORS
330
3F
102
}
330
3F
100
AcDbScale
 70
     0
300
1:10
140
1.0
141
10.0
290
     0
  0
SCALE
  5
46
102
{ACAD_REACTORS
330
3F
102
}
330
3F
100
AcDbScale
 70
     0
300
1:16
140
1.0
141
16.0
290
     0
  0
SCALE
  5
47
102
{ACAD_REACTORS
330
3F
102
}
330
3F
100
AcDbScale
 70
     0
300
1:20
140
1.0
141
20.0
290
     0
  0
SCALE
  5
48
102
{ACAD_REACTORS
330
3F
102
}
330
3F
100
AcDbScale
 70
     0
300
1:30
140
1.0
141
30.0
290
     0
  0
SCALE
  5
49
102
{ACAD_REACTORS
330
3F
102
}
330
3F
100
AcDbScale
 70
     0
300
1:40
140
1.0
141
40.0
290
     0
  0
SCALE
  5
4A
102
{ACAD_REACTORS
330
3F
102
}
330
3F
100
AcDbScale
 70
     0
300
1:50
140
1.0
141
50.0
290
     0
  0
SCALE
  5
4B
102
{ACAD_REACTORS
330
3F
102
}
330
3F
100
AcDbScale
 70
     0
300
1:100
140
1.0
141
100.0
290
     0
  0
SCALE
  5
4C
102
{ACAD_REACTORS
330
3F
102
}
330
3F
100
AcDbScale
 70
     0
300
2:1
140
2.0
141
1.0
290
     0
  0
SCALE
  5
4D
102
{ACAD_REACTORS
330
3F
102
}
330
3F
100
AcDbScale
 70
     0
300
4:1
140
4.0
141
1.0
290
     0
  0
SCALE
  5
4E
102
{ACAD_REACTORS
330
3F
102
}
330
3F
100
AcDbScale
 70
     0
300
8:1
140
8.0
141
1.0
290
     0
  0
SCALE
  5
4F
102
{ACAD_REACTORS
330
3F
102
}
330
3F
100
AcDbScale
 70
     0
300
10:1
140
10.0
141
1.0
290
     0
  0
SCALE
  5
50
102
{ACAD_REACTORS
330
3F
102
}
330
3F
100
AcDbScale
 70
     0
300
100:1
140
100.0
141
1.0
290
     0
  0
SCALE
  5
51
102
{ACAD_REACTORS
330
3F
102
}
330
3F
100
AcDbScale
 70
     0
300
1/128" = 1'-0"
140
0.0078125
141
12.0
290
     0
  0
SCALE
  5
52
102
{ACAD_REACTORS
330
3F
102
}
330
3F
100
AcDbScale
 70
     0
300
1/64" = 1'-0"
140
0.015625
141
12.0
290
     0
  0
SCALE
  5
53
102
{ACAD_REACTORS
330
3F
102
}
330
3F
100
AcDbScale
 70
     0
300
1/32" = 1'-0"
140
0.03125
141
12.0
290
     0
  0
SCALE
  5
54
102
{ACAD_REACTORS
330
3F
102
}
330
3F
100
AcDbScale
 70
     0
300
1/16" = 1'-0"
140
0.0625
141
12.0
290
     0
  0
SCALE
  5
55
102
{ACAD_REACTORS
330
3F
102
}
330
3F
100
AcDbScale
 70
     0
300
3/32" = 1'-0"
140
0.09375
141
12.0
290
     0
  0
SCALE
  5
56
102
{ACAD_REACTORS
330
3F
102
}
330
3F
100
AcDbScale
 70
     0
300
1/8" = 1'-0"
140
0.125
141
12.0
290
     0
  0
SCALE
  5
57
102
{ACAD_REACTORS
330
3F
102
}
330
3F
100
AcDbScale
 70
     0
300
3/16" = 1'-0"
140
0.1875
141
12.0
290
     0
  0
SCALE
  5
58
102
{ACAD_REACTORS
330
3F
102
}
330
3F
100
AcDbScale
 70
     0
300
1/4" = 1'-0"
140
0.25
141
12.0
290
     0
  0
SCALE
  5
59
102
{ACAD_REACTORS
330
3F
102
}
330
3F
100
AcDbScale
 70
     0
300
3/8" = 1'-0"
140
0.375
141
12.0
290
     0
  0
SCALE
  5
5A
102
{ACAD_REACTORS
330
3F
102
}
330
3F
100
AcDbScale
 70
     0
300
1/2" = 1'-0"
140
0.5
141
12.0
290
     0
  0
SCALE
  5
5B
102
{ACAD_REACTORS
330
3F
102
}
330
3F
100
AcDbScale
 70
     0
300
3/4" = 1'-0"
140
0.75
141
12.0
290
     0
  0
SCALE
  5
5C
102
{ACAD_REACTORS
330
3F
102
}
330
3F
100
AcDbScale
 70
     0
300
1" = 1'-0"
140
1.0
141
12.0
290
     0
  0
SCALE
  5
5D
102
{ACAD_REACTORS
330
3F
102
}
330
3F
100
AcDbScale
 70
     0
300
1-1/2" = 1'-0"
140
1.5
141
12.0
290
     0
  0
SCALE
  5
5E
102
{ACAD_REACTORS
330
3F
102
}
330
3F
100
AcDbScale
 70
     0
300
3" = 1'-0"
140
3.0
141
12.0
290
     0
  0
SCALE
  5
5F
102
{ACAD_REACTORS
330
3F
102
}
330
3F
100
AcDbScale
 70
     0
300
6" = 1'-0"
140
6.0
141
12.0
290
     0
  0
SCALE
  5
60
102
{ACAD_REACTORS
330
3F
102
}
330
3F
100
AcDbScale
 70
     0
300
1'-0" = 1'-0"
140
12.0
141
12.0
290
     0
  0
VISUALSTYLE
  5
2F
102
{ACAD_REACTORS
330
2A
102
}
102
{ACAD_XDICTIONARY
360
4D4
102
}
330
2A
100
AcDbVisualStyle
  2
2dWireframe
 70
     4
 71
     0
 72
     2
 73
     0
 90
        0
 40
0.6
 41
30.0
 62
     5
 63
     7
421
 16777215
 74
     1
 91
        4
 64
     7
 65
   257
 75
     1
175
     1
 42
1.0
 92
        0
 66
   257
 43
1.0
 76
     1
 77
     6
 78
     2
 67
     7
 79
     5
170
     0
171
     0
290
     0
174
     0
 93
        1
 44
0.0
173
     0
291
     0
 45
0.0
1001
ACAD
1000
AcDbSavedByObjectVersion
1070
     0
  0
VISUALSTYLE
  5
31
102
{ACAD_REACTORS
330
2A
102
}
102
{ACAD_XDICTIONARY
360
4D8
102
}
330
2A
100
AcDbVisualStyle
  2
3D Hidden
 70
     6
 71
     1
 72
     2
 73
     2
 90
        0
 40
0.6
 41
30.0
 62
     5
 63
     7
421
 16777215
 74
     2
 91
        2
 64
     7
 65
   257
 75
     2
175
     1
 42
40.0
 92
        0
 66
   257
 43
1.0
 76
     1
 77
     6
 78
     2
 67
     7
 79
     3
170
     0
171
     0
290
     0
174
     0
 93
        1
 44
0.0
173
     0
291
     0
 45
0.0
1001
ACAD
1000
AcDbSavedByObjectVersion
1070
     0
  0
VISUALSTYLE
  5
30
102
{ACAD_REACTORS
330
2A
102
}
102
{ACAD_XDICTIONARY
360
4D6
102
}
330
2A
100
AcDbVisualStyle
  2
3dWireframe
 70
     5
 71
     0
 72
     2
 73
     0
 90
        0
 40
0.6
 41
30.0
 62
     5
 63
     7
421
 16777215
 74
     1
 91
        4
 64
     7
 65
   257
 75
     1
175
     1
 42
1.0
 92
        0
 66
   257
 43
1.0
 76
     1
 77
     6
 78
     2
 67
     7
 79
     5
170
     0
171
     0
290
     0
174
     0
 93
        1
 44
0.0
173
     0
291
     0
 45
0.0
1001
ACAD
1000
AcDbSavedByObjectVersion
1070
     0
  0
VISUALSTYLE
  5
32
102
{ACAD_REACTORS
330
2A
102
}
102
{ACAD_XDICTIONARY
360
4DA
102
}
330
2A
100
AcDbVisualStyle
  2
Basic
 70
     7
 71
     1
 72
     0
 73
     1
 90
        0
 40
0.6
 41
30.0
 62
     5
 63
     7
421
 16777215
 74
     0
 91
        4
 64
     7
 65
   257
 75
     1
175
     1
 42
1.0
 92
        8
 66
     7
 43
1.0
 76
     1
 77
     6
 78
     2
 67
     7
 79
     5
170
     0
171
     0
290
     0
174
     0
 93
        1
 44
0.0
173
     0
291
     1
 45
0.0
1001
ACAD
1000
AcDbSavedByObjectVersion
1070
     0
  0
VISUALSTYLE
  5
36
102
{ACAD_REACTORS
330
2A
102
}
102
{ACAD_XDICTIONARY
360
4E2
102
}
330
2A
100
AcDbVisualStyle
  2
Brighten
 70
    12
 71
     2
 72
     2
 73
     0
 90
        0
 40
0.6
 41
30.0
 62
     5
 63
     7
421
 16777215
 74
     1
 91
        4
 64
     7
 65
   257
 75
     1
175
     1
 42
1.0
 92
        8
 66
     7
 43
1.0
 76
     1
 77
     6
 78
     2
 67
     7
 79
     5
170
     0
171
     0
290
     0
174
     0
 93
        1
 44
50.0
173
     0
291
     1
 45
0.0
1001
ACAD
1000
AcDbSavedByObjectVersion
1070
     0
  0
VISUALSTYLE
  5
3A
102
{ACAD_REACTORS
330
2A
102
}
102
{ACAD_XDICTIONARY
360
4EA
102
}
330
2A
100
AcDbVisualStyle
  2
ColorChange
 70
    16
 71
     2
 72
     2
 73
     3
 90
        0
 40
0.6
 41
30.0
 62
     5
 63
     8
421
  8421504
 74
     1
 91
        4
 64
     7
 65
   257
 75
     1
175
     1
 42
1.0
 92
        8
 66
     8
424
  8421504
 43
1.0
 76
     1
 77
     6
 78
     2
 67
     7
 79
     5
170
     0
171
     0
290
     0
174
     0
 93
        1
 44
0.0
173
     0
291
     1
 45
0.0
1001
ACAD
1000
AcDbSavedByObjectVersion
1070
     0
  0
VISUALSTYLE
  5
34
102
{ACAD_REACTORS
330
2A
102
}
102
{ACAD_XDICTIONARY
360
4DE
102
}
330
2A
100
AcDbVisualStyle
  2
Conceptual
 70
     9
 71
     3
 72
     2
 73
     0
 90
        0
 40
0.6
 41
30.0
 62
     5
 63
     7
421
 16777215
 74
     2
 91
        2
 64
     7
 65
   257
 75
     1
175
     1
 42
40.0
 92
        8
 66
     7
 43
1.0
 76
     1
 77
     6
 78
     2
 67
     7
 79
     3
170
     0
171
     0
290
     0
174
     0
 93
        1
 44
0.0
173
     0
291
     0
 45
0.0
1001
ACAD
1000
AcDbSavedByObjectVersion
1070
     0
  0
VISUALSTYLE
  5
35
102
{ACAD_REACTORS
330
2A
102
}
102
{ACAD_XDICTIONARY
360
4E0
102
}
330
2A
100
AcDbVisualStyle
  2
Dim
 70
    11
 71
     2
 72
     2
 73
     0
 90
        0
 40
0.6
 41
30.0
 62
     5
 63
     7
421
 16777215
 74
     1
 91
        4
 64
     7
 65
   257
 75
     1
175
     1
 42
1.0
 92
        8
 66
     7
 43
1.0
 76
     1
 77
     6
 78
     2
 67
     7
 79
     5
170
     0
171
     0
290
     0
174
     0
 93
        1
 44
-50.0
173
     0
291
     1
 45
0.0
1001
ACAD
1000
AcDbSavedByObjectVersion
1070
     0
  0
VISUALSTYLE
  5
39
102
{ACAD_REACTORS
330
2A
102
}
102
{ACAD_XDICTIONARY
360
4E8
102
}
330
2A
100
AcDbVisualStyle
  2
Facepattern
 70
    15
 71
     2
 72
     2
 73
     0
 90
        0
 40
0.6
 41
30.0
 62
     5
 63
     7
421
 16777215
 74
     1
 91
        4
 64
     7
 65
   257
 75
     1
175
     1
 42
1.0
 92
        8
 66
     7
 43
1.0
 76
     1
 77
     6
 78
     2
 67
     7
 79
     5
170
     0
171
     0
290
     0
174
     0
 93
        1
 44
0.0
173
     0
291
     1
 45
0.0
1001
ACAD
1000
AcDbSavedByObjectVersion
1070
     0
  0
VISUALSTYLE
  5
2B
102
{ACAD_REACTORS
330
2A
102
}
102
{ACAD_XDICTIONARY
360
4CC
102
}
330
2A
100
AcDbVisualStyle
  2
Flat
 70
     0
 71
     2
 72
     1
 73
     1
 90
        2
 40
0.6
 41
30.0
 62
     5
 63
     7
421
 16777215
 74
     0
 91
        4
 64
     7
 65
   257
 75
     1
175
     1
 42
1.0
 92
        8
 66
     7
 43
1.0
 76
     1
 77
     6
 78
     2
 67
     7
 79
     5
170
     0
171
     0
290
     0
174
     0
 93
       13
 44
0.0
173
     0
291
     1
 45
0.0
1001
ACAD
1000
AcDbSavedByObjectVersion
1070
     0
  0
VISUALSTYLE
  5
2C
102
{ACAD_REACTORS
330
2A
102
}
102
{ACAD_XDICTIONARY
360
4CE
102
}
330
2A
100
AcDbVisualStyle
  2
FlatWithEdges
 70
     1
 71
     2
 72
     1
 73
     1
 90
        2
 40
0.6
 41
30.0
 62
     5
 63
     7
421
 16777215
 74
     1
 91
        4
 64
     7
 65
   257
 75
     1
175
     1
 42
1.0
 92
        0
 66
   257
 43
1.0
 76
     1
 77
     6
 78
     2
 67
     7
 79
     5
170
     0
171
     0
290
     0
174
     0
 93
       13
 44
0.0
173
     0
291
     1
 45
0.0
1001
ACAD
1000
AcDbSavedByObjectVersion
1070
     0
  0
VISUALSTYLE
  5
2D
102
{ACAD_REACTORS
330
2A
102
}
102
{ACAD_XDICTIONARY
360
4D0
102
}
330
2A
100
AcDbVisualStyle
  2
Gouraud
 70
     2
 71
     2
 72
     2
 73
     1
 90
        2
 40
0.6
 41
30.0
 62
     5
 63
     7
421
 16777215
 74
     0
 91
        4
 64
     7
 65
   257
 75
     1
175
     1
 42
1.0
 92
        0
 66
     7
 43
1.0
 76
     1
 77
     6
 78
     2
 67
     7
 79
     5
170
     0
171
     0
290
     0
174
     0
 93
       13
 44
0.0
173
     0
291
     1
 45
0.0
1001
ACAD
1000
AcDbSavedByObjectVersion
1070
     0
  0
VISUALSTYLE
  5
2E
102
{ACAD_REACTORS
330
2A
102
}
102
{ACAD_XDICTIONARY
360
4D2
102
}
330
2A
100
AcDbVisualStyle
  2
GouraudWithEdges
 70
     3
 71
     2
 72
     2
 73
     1
 90
        2
 40
0.6
 41
30.0
 62
     5
 63
     7
421
 16777215
 74
     1
 91
        4
 64
     7
 65
   257
 75
     1
175
     1
 42
1.0
 92
        0
 66
   257
 43
1.0
 76
     1
 77
     6
 78
     2
 67
     7
 79
     5
170
     0
171
     0
290
     0
174
     0
 93
       13
 44
0.0
173
     0
291
     1
 45
0.0
1001
ACAD
1000
AcDbSavedByObjectVersion
1070
     0
  0
VISUALSTYLE
  5
38
102
{ACAD_REACTORS
330
2A
102
}
102
{ACAD_XDICTIONARY
360
4E6
102
}
330
2A
100
AcDbVisualStyle
  2
Linepattern
 70
    14
 71
     2
 72
     2
 73
     0
 90
        0
 40
0.6
 41
30.0
 62
     5
 63
     7
421
 16777215
 74
     1
 91
        4
 64
     7
 65
   257
 75
     7
175
     7
 42
1.0
 92
        8
 66
     7
 43
1.0
 76
     1
 77
     6
 78
     2
 67
     7
 79
     5
170
     0
171
     0
290
     0
174
     0
 93
        1
 44
0.0
173
     0
291
     1
 45
0.0
1001
ACAD
1000
AcDbSavedByObjectVersion
1070
     0
  0
VISUALSTYLE
  5
33
102
{ACAD_REACTORS
330
2A
102
}
102
{ACAD_XDICTIONARY
360
4DC
102
}
330
2A
100
AcDbVisualStyle
  2
Realistic
 70
     8
 71
     2
 72
     3
 73
     0
 90
        2
 40
0.6
 41
30.0
 62
     5
 63
     7
421
 16777215
 74
     0
 91
        0
 64
     7
 65
   257
 75
     1
175
     1
 42
1.0
 92
        8
 66
   257
 43
1.0
 76
     1
 77
     6
 78
     2
 67
     7
 79
     3
170
     0
171
     0
290
     0
174
     0
 93
       13
 44
0.0
173
     0
291
     0
 45
0.0
1001
ACAD
1000
AcDbSavedByObjectVersion
1070
     0
  0
VISUALSTYLE
  5
37
102
{ACAD_REACTORS
330
2A
102
}
102
{ACAD_XDICTIONARY
360
4E4
102
}
330
2A
100
AcDbVisualStyle
  2
Thicken
 70
    13
 71
     2
 72
     2
 73
     0
 90
        0
 40
0.6
 41
30.0
 62
     5
 63
     7
421
 16777215
 74
     1
 91
        4
 64
     7
 65
   257
 75
     1
175
     1
 42
1.0
 92
       12
 66
     7
 43
1.0
 76
     1
 77
     6
 78
     2
 67
     7
 79
     5
170
     0
171
     0
290
     0
174
     0
 93
        1
 44
0.0
173
     0
291
     1
 45
0.0
1001
ACAD
1000
AcDbSavedByObjectVersion
1070
     0
  0
DICTIONARYVAR
  5
4CA
102
{ACAD_REACTORS
330
4C9
102
}
330
4C9
100
DictionaryVariables
280
     0
  1
1:1
  0
DICTIONARYVAR
  5
4CB
102
{ACAD_REACTORS
330
4C9
102
}
330
4C9
100
DictionaryVariables
280
     0
  1
1
  0
DICTIONARY
  5
4EE
330
3D
100
AcDbDictionary
280
     1
281
     1
  3
ACAD_XREC_ROUNDTRIP
360
4EF
  0
DICTIONARY
  5
4EC
330
3C
100
AcDbDictionary
280
     1
281
     1
  3
ACAD_XREC_ROUNDTRIP
360
4ED
  0
DICTIONARY
  5
4F0
330
3E
100
AcDbDictionary
280
     1
281
     1
  3
ACAD_XREC_ROUNDTRIP
360
4F1
  0
DICTIONARY
  5
4D4
330
2F
100
AcDbDictionary
280
     1
281
     1
  3
ACAD_XREC_ROUNDTRIP
360
4D5
  0
DICTIONARY
  5
4D8
330
31
100
AcDbDictionary
280
     1
281
     1
  3
ACAD_XREC_ROUNDTRIP
360
4D9
  0
DICTIONARY
  5
4D6
330
30
100
AcDbDictionary
280
     1
281
     1
  3
ACAD_XREC_ROUNDTRIP
360
4D7
  0
DICTIONARY
  5
4DA
330
32
100
AcDbDictionary
280
     1
281
     1
  3
ACAD_XREC_ROUNDTRIP
360
4DB
  0
DICTIONARY
  5
4E2
330
36
100
AcDbDictionary
280
     1
281
     1
  3
ACAD_XREC_ROUNDTRIP
360
4E3
  0
DICTIONARY
  5
4EA
330
3A
100
AcDbDictionary
280
     1
281
     1
  3
ACAD_XREC_ROUNDTRIP
360
4EB
  0
DICTIONARY
  5
4DE
330
34
100
AcDbDictionary
280
     1
281
     1
  3
ACAD_XREC_ROUNDTRIP
360
4DF
  0
DICTIONARY
  5
4E0
330
35
100
AcDbDictionary
280
     1
281
     1
  3
ACAD_XREC_ROUNDTRIP
360
4E1
  0
DICTIONARY
  5
4E8
330
39
100
AcDbDictionary
280
     1
281
     1
  3
ACAD_XREC_ROUNDTRIP
360
4E9
  0
DICTIONARY
  5
4CC
330
2B
100
AcDbDictionary
280
     1
281
     1
  3
ACAD_XREC_ROUNDTRIP
360
4CD
  0
DICTIONARY
  5
4CE
330
2C
100
AcDbDictionary
280
     1
281
     1
  3
ACAD_XREC_ROUNDTRIP
360
4CF
  0
DICTIONARY
  5
4D0
330
2D
100
AcDbDictionary
280
     1
281
     1
  3
ACAD_XREC_ROUNDTRIP
360
4D1
  0
DICTIONARY
  5
4D2
330
2E
100
AcDbDictionary
280
     1
281
     1
  3
ACAD_XREC_ROUNDTRIP
360
4D3
  0
DICTIONARY
  5
4E6
330
38
100
AcDbDictionary
280
     1
281
     1
  3
ACAD_XREC_ROUNDTRIP
360
4E7
  0
DICTIONARY
  5
4DC
330
33
100
AcDbDictionary
280
     1
281
     1
  3
ACAD_XREC_ROUNDTRIP
360
4DD
  0
DICTIONARY
  5
4E4
330
37
100
AcDbDictionary
280
     1
281
     1
  3
ACAD_XREC_ROUNDTRIP
360
4E5
  0
XRECORD
  5
4EF
102
{ACAD_REACTORS
330
4EE
102
}
330
4EE
100
AcDbXrecord
280
     1
102
MATERIAL
148
0.0
149
0.0
149
0.0
 93
        0
 94
      127
282
     0
 72
     1
 77
     1
171
     1
175
     1
179
     1
273
     0
  0
XRECORD
  5
4ED
102
{ACAD_REACTORS
330
4EC
102
}
330
4EC
100
AcDbXrecord
280
     1
102
MATERIAL
148
0.0
149
0.0
149
0.0
 93
        0
 94
      127
282
     0
 72
     1
 77
     1
171
     1
175
     1
179
     1
273
     0
  0
XRECORD
  5
4F1
102
{ACAD_REACTORS
330
4F0
102
}
330
4F0
100
AcDbXrecord
280
     1
102
MATERIAL
148
0.0
149
0.0
149
0.0
 93
        0
 94
      127
282
     0
 72
     1
 77
     1
171
     1
175
     1
179
     1
273
     0
  0
XRECORD
  5
4D5
102
{ACAD_REACTORS
330
4D4
102
}
330
4D4
100
AcDbXrecord
280
     1
102
RTVSPropertyOp0
 70
     1
102
RTVSPropertyOp1
 70
     1
102
RTVSPropertyOp2
 70
     1
102
RTVSPropertyOp3
 70
     1
102
RTVSPropertyOp4
 70
     1
102
RTVSPropertyOp5
 70
     1
102
RTVSPropertyOp6
 70
     1
102
RTVSPropertyOp7
 70
     1
102
RTVSPropertyOp8
 70
     1
102
RTVSPropertyOp9
 70
     1
102
RTVSPropertyOp10
 70
     1
102
RTVSPropertyOp11
 70
     1
102
RTVSPropertyOp12
 70
     1
102
RTVSPropertyOp13
 70
     1
102
RTVSPropertyOp14
 70
     1
102
RTVSPropertyOp15
 70
     1
102
RTVSPropertyOp16
 70
     1
102
RTVSPropertyOp17
 70
     1
102
RTVSPropertyOp18
 70
     1
102
RTVSPropertyOp19
 70
     1
102
RTVSPropertyOp20
 70
     1
102
RTVSPropertyOp21
 70
     1
102
RTVSPropertyOp22
 70
     1
102
RTVSPropertyOp23
 70
     1
102
RTVSPropertyOp24
 70
     1
102
RTVSPropertyOp25
 70
     1
102
RTVSPropertyOp26
 70
     1
102
RTVSPropertyOp27
 70
     1
102
RTVSPropertyOp28
 70
     1
102
RTVSPropertyOp29
 70
     1
102
RTVSPropertyOp30
 70
     1
102
RTVSPropertyOp31
 70
     1
102
RTVSPropertyOp32
 70
     1
102
RTVSPropertyOp33
 70
     1
102
RTVSPropertyOp34
 70
     1
102
RTVSPropertyOp35
 70
     1
102
RTVSPropertyOp36
 70
     1
102
RTVSPropertyOp37
 70
     1
102
RTVSPropertyOp38
 70
     1
102
RTVSPropertyOp39
 70
     1
102
RTVSPropertyOp40
 70
     1
102
RTVSPropertyOp41
 70
     1
102
RTVSPropertyOp42
 70
     1
102
RTVSPropertyOp43
 70
     1
102
RTVSPropertyOp44
 70
     1
102
RTVSPropertyOp45
 70
     1
102
RTVSPropertyOp46
 70
     1
102
RTVSPropertyOp47
 70
     1
102
RTVSPropertyOp48
 70
     1
102
RTVSPropertyOp49
 70
     1
102
RTVSPropertyOp50
 70
     1
102
RTVSPropertyOp51
 70
     0
102
RTVSPropertyOp52
 70
     0
102
RTVSPropertyOp53
 70
     1
102
RTVSPropertyOp54
 70
     1
102
RTVSPropertyOp55
 70
     1
102
RTVSPropertyOp56
 70
     1
102
RTVSPropertyOp57
 70
     1
102
RTVSPost2010Prop28
280
     1
102
RTVSPost2010PropOp28
 70
     1
102
RTVSPost2010Prop29
280
     1
102
RTVSPost2010PropOp29
 70
     1
102
RTVSPost2010Prop30
280
     0
102
RTVSPost2010PropOp30
 70
     1
102
RTVSPost2010Prop31
280
     0
102
RTVSPost2010PropOp31
 70
     1
102
RTVSPost2010Prop32
280
     0
102
RTVSPost2010PropOp32
 70
     1
102
RTVSPost2010Prop33
280
     0
102
RTVSPost2010PropOp33
 70
     1
102
RTVSPost2010Prop34
280
     0
102
RTVSPost2010PropOp34
 70
     1
102
RTVSPost2010Prop35
280
     0
102
RTVSPost2010PropOp35
 70
     1
102
RTVSPost2010Prop36
280
     0
102
RTVSPost2010PropOp36
 70
     1
102
RTVSPost2010Prop37
 90
       50
102
RTVSPost2010PropOp37
 70
     1
102
RTVSPost2010Prop38
140
0.0
102
RTVSPost2010PropOp38
 70
     1
102
RTVSPost2010Prop39
140
1.0
102
RTVSPost2010PropOp39
 70
     1
102
RTVSPost2010Prop40
 90
        0
102
RTVSPost2010PropOp40
 70
     1
102
RTVSPost2010Prop41ColorIndex
 90
       18
102
RTVSPost2010Prop41ColorRGB
 90
        0
102
RTVSPost2010PropOp41
 70
     1
102
RTVSPost2010Prop42
 90
       50
102
RTVSPost2010PropOp42
 70
     1
102
RTVSPost2010Prop43
 90
        3
102
RTVSPost2010PropOp43
 70
     1
102
RTVSPost2010Prop44ColorIndex
 90
        5
102
RTVSPost2010Prop44ColorRGB
 90
      255
102
RTVSPost2010PropOp44
 70
     1
102
RTVSPost2010Prop45
280
     0
102
RTVSPost2010PropOp45
 70
     1
102
RTVSPost2010Prop46
 90
       50
102
RTVSPost2010PropOp46
 70
     1
102
RTVSPost2010Prop47
 90
       50
102
RTVSPost2010PropOp47
 70
     1
102
RTVSPost2010Prop48
 90
       50
102
RTVSPost2010PropOp48
 70
     1
102
RTVSPost2010Prop49
280
     0
102
RTVSPost2010PropOp49
 70
     1
102
RTVSPost2010Prop50
 90
       50
102
RTVSPost2010PropOp50
 70
     1
102
RTVSPost2010Prop51ColorIndex
 90
      256
102
RTVSPost2010Prop51ColorRGB
 90
-16777216
102
RTVSPost2010PropOp51
 70
     0
102
RTVSPost2010Prop52
140
1.0
102
RTVSPost2010PropOp52
 70
     0
102
RTVSPost2010Prop53
 90
        2
102
RTVSPost2010PropOp53
 70
     1
102
RTVSPost2010Prop54
  1
strokes_ogs.tif
102
RTVSPost2010PropOp54
 70
     1
102
RTVSPost2010Prop55
280
     0
102
RTVSPost2010PropOp55
 70
     1
102
RTVSPost2010Prop56
140
1.0
102
RTVSPost2010PropOp56
 70
     1
102
RTVSPost2010Prop57
140
1.0
102
RTVSPost2010PropOp57
 70
     1
  0
XRECORD
  5
4D9
102
{ACAD_REACTORS
330
4D8
102
}
330
4D8
100
AcDbXrecord
280
     1
102
RTVSPropertyOp0
 70
     1
102
RTVSPropertyOp1
 70
     1
102
RTVSPropertyOp2
 70
     1
102
RTVSPropertyOp3
 70
     1
102
RTVSPropertyOp4
 70
     1
102
RTVSPropertyOp5
 70
     1
102
RTVSPropertyOp6
 70
     1
102
RTVSPropertyOp7
 70
     1
102
RTVSPropertyOp8
 70
     1
102
RTVSPropertyOp9
 70
     1
102
RTVSPropertyOp10
 70
     1
102
RTVSPropertyOp11
 70
     1
102
RTVSPropertyOp12
 70
     1
102
RTVSPropertyOp13
 70
     1
102
RTVSPropertyOp14
 70
     1
102
RTVSPropertyOp15
 70
     1
102
RTVSPropertyOp16
 70
     1
102
RTVSPropertyOp17
 70
     1
102
RTVSPropertyOp18
 70
     1
102
RTVSPropertyOp19
 70
     1
102
RTVSPropertyOp20
 70
     1
102
RTVSPropertyOp21
 70
     1
102
RTVSPropertyOp22
 70
     1
102
RTVSPropertyOp23
 70
     1
102
RTVSPropertyOp24
 70
     1
102
RTVSPropertyOp25
 70
     1
102
RTVSPropertyOp26
 70
     1
102
RTVSPropertyOp27
 70
     1
102
RTVSPropertyOp28
 70
     1
102
RTVSPropertyOp29
 70
     1
102
RTVSPropertyOp30
 70
     1
102
RTVSPropertyOp31
 70
     1
102
RTVSPropertyOp32
 70
     1
102
RTVSPropertyOp33
 70
     1
102
RTVSPropertyOp34
 70
     1
102
RTVSPropertyOp35
 70
     1
102
RTVSPropertyOp36
 70
     1
102
RTVSPropertyOp37
 70
     1
102
RTVSPropertyOp38
 70
     1
102
RTVSPropertyOp39
 70
     1
102
RTVSPropertyOp40
 70
     1
102
RTVSPropertyOp41
 70
     1
102
RTVSPropertyOp42
 70
     1
102
RTVSPropertyOp43
 70
     1
102
RTVSPropertyOp44
 70
     1
102
RTVSPropertyOp45
 70
     1
102
RTVSPropertyOp46
 70
     1
102
RTVSPropertyOp47
 70
     1
102
RTVSPropertyOp48
 70
     1
102
RTVSPropertyOp49
 70
     1
102
RTVSPropertyOp50
 70
     1
102
RTVSPropertyOp51
 70
     0
102
RTVSPropertyOp52
 70
     0
102
RTVSPropertyOp53
 70
     1
102
RTVSPropertyOp54
 70
     1
102
RTVSPropertyOp55
 70
     1
102
RTVSPropertyOp56
 70
     1
102
RTVSPropertyOp57
 70
     1
102
RTVSPost2010Prop28
280
     0
102
RTVSPost2010PropOp28
 70
     1
102
RTVSPost2010Prop29
280
     1
102
RTVSPost2010PropOp29
 70
     1
102
RTVSPost2010Prop30
280
     1
102
RTVSPost2010PropOp30
 70
     1
102
RTVSPost2010Prop31
280
     0
102
RTVSPost2010PropOp31
 70
     1
102
RTVSPost2010Prop32
280
     0
102
RTVSPost2010PropOp32
 70
     1
102
RTVSPost2010Prop33
280
     0
102
RTVSPost2010PropOp33
 70
     1
102
RTVSPost2010Prop34
280
     0
102
RTVSPost2010PropOp34
 70
     1
102
RTVSPost2010Prop35
280
     0
102
RTVSPost2010PropOp35
 70
     1
102
RTVSPost2010Prop36
280
     0
102
RTVSPost2010PropOp36
 70
     1
102
RTVSPost2010Prop37
 90
       50
102
RTVSPost2010PropOp37
 70
     1
102
RTVSPost2010Prop38
140
0.0
102
RTVSPost2010PropOp38
 70
     1
102
RTVSPost2010Prop39
140
1.0
102
RTVSPost2010PropOp39
 70
     1
102
RTVSPost2010Prop40
 90
        0
102
RTVSPost2010PropOp40
 70
     1
102
RTVSPost2010Prop41ColorIndex
 90
       18
102
RTVSPost2010Prop41ColorRGB
 90
        0
102
RTVSPost2010PropOp41
 70
     1
102
RTVSPost2010Prop42
 90
       50
102
RTVSPost2010PropOp42
 70
     1
102
RTVSPost2010Prop43
 90
        3
102
RTVSPost2010PropOp43
 70
     1
102
RTVSPost2010Prop44ColorIndex
 90
        5
102
RTVSPost2010Prop44ColorRGB
 90
      255
102
RTVSPost2010PropOp44
 70
     1
102
RTVSPost2010Prop45
280
     0
102
RTVSPost2010PropOp45
 70
     1
102
RTVSPost2010Prop46
 90
       50
102
RTVSPost2010PropOp46
 70
     1
102
RTVSPost2010Prop47
 90
       50
102
RTVSPost2010PropOp47
 70
     1
102
RTVSPost2010Prop48
 90
       50
102
RTVSPost2010PropOp48
 70
     1
102
RTVSPost2010Prop49
280
     0
102
RTVSPost2010PropOp49
 70
     1
102
RTVSPost2010Prop50
 90
       50
102
RTVSPost2010PropOp50
 70
     1
102
RTVSPost2010Prop51ColorIndex
 90
      256
102
RTVSPost2010Prop51ColorRGB
 90
-16777216
102
RTVSPost2010PropOp51
 70
     0
102
RTVSPost2010Prop52
140
1.0
102
RTVSPost2010PropOp52
 70
     0
102
RTVSPost2010Prop53
 90
        2
102
RTVSPost2010PropOp53
 70
     1
102
RTVSPost2010Prop54
  1
strokes_ogs.tif
102
RTVSPost2010PropOp54
 70
     1
102
RTVSPost2010Prop55
280
     0
102
RTVSPost2010PropOp55
 70
     1
102
RTVSPost2010Prop56
140
1.0
102
RTVSPost2010PropOp56
 70
     1
102
RTVSPost2010Prop57
140
1.0
102
RTVSPost2010PropOp57
 70
     1
  0
XRECORD
  5
4D7
102
{ACAD_REACTORS
330
4D6
102
}
330
4D6
100
AcDbXrecord
280
     1
102
RTVSPropertyOp0
 70
     1
102
RTVSPropertyOp1
 70
     1
102
RTVSPropertyOp2
 70
     1
102
RTVSPropertyOp3
 70
     1
102
RTVSPropertyOp4
 70
     1
102
RTVSPropertyOp5
 70
     1
102
RTVSPropertyOp6
 70
     1
102
RTVSPropertyOp7
 70
     1
102
RTVSPropertyOp8
 70
     1
102
RTVSPropertyOp9
 70
     1
102
RTVSPropertyOp10
 70
     1
102
RTVSPropertyOp11
 70
     1
102
RTVSPropertyOp12
 70
     1
102
RTVSPropertyOp13
 70
     1
102
RTVSPropertyOp14
 70
     1
102
RTVSPropertyOp15
 70
     1
102
RTVSPropertyOp16
 70
     1
102
RTVSPropertyOp17
 70
     1
102
RTVSPropertyOp18
 70
     1
102
RTVSPropertyOp19
 70
     1
102
RTVSPropertyOp20
 70
     1
102
RTVSPropertyOp21
 70
     1
102
RTVSPropertyOp22
 70
     1
102
RTVSPropertyOp23
 70
     1
102
RTVSPropertyOp24
 70
     1
102
RTVSPropertyOp25
 70
     1
102
RTVSPropertyOp26
 70
     1
102
RTVSPropertyOp27
 70
     1
102
RTVSPropertyOp28
 70
     1
102
RTVSPropertyOp29
 70
     1
102
RTVSPropertyOp30
 70
     1
102
RTVSPropertyOp31
 70
     1
102
RTVSPropertyOp32
 70
     1
102
RTVSPropertyOp33
 70
     1
102
RTVSPropertyOp34
 70
     1
102
RTVSPropertyOp35
 70
     1
102
RTVSPropertyOp36
 70
     1
102
RTVSPropertyOp37
 70
     1
102
RTVSPropertyOp38
 70
     1
102
RTVSPropertyOp39
 70
     1
102
RTVSPropertyOp40
 70
     1
102
RTVSPropertyOp41
 70
     1
102
RTVSPropertyOp42
 70
     1
102
RTVSPropertyOp43
 70
     1
102
RTVSPropertyOp44
 70
     1
102
RTVSPropertyOp45
 70
     1
102
RTVSPropertyOp46
 70
     1
102
RTVSPropertyOp47
 70
     1
102
RTVSPropertyOp48
 70
     1
102
RTVSPropertyOp49
 70
     1
102
RTVSPropertyOp50
 70
     1
102
RTVSPropertyOp51
 70
     0
102
RTVSPropertyOp52
 70
     0
102
RTVSPropertyOp53
 70
     1
102
RTVSPropertyOp54
 70
     1
102
RTVSPropertyOp55
 70
     1
102
RTVSPropertyOp56
 70
     1
102
RTVSPropertyOp57
 70
     1
102
RTVSPost2010Prop28
280
     0
102
RTVSPost2010PropOp28
 70
     1
102
RTVSPost2010Prop29
280
     1
102
RTVSPost2010PropOp29
 70
     1
102
RTVSPost2010Prop30
280
     1
102
RTVSPost2010PropOp30
 70
     1
102
RTVSPost2010Prop31
280
     0
102
RTVSPost2010PropOp31
 70
     1
102
RTVSPost2010Prop32
280
     0
102
RTVSPost2010PropOp32
 70
     1
102
RTVSPost2010Prop33
280
     0
102
RTVSPost2010PropOp33
 70
     1
102
RTVSPost2010Prop34
280
     0
102
RTVSPost2010PropOp34
 70
     1
102
RTVSPost2010Prop35
280
     0
102
RTVSPost2010PropOp35
 70
     1
102
RTVSPost2010Prop36
280
     0
102
RTVSPost2010PropOp36
 70
     1
102
RTVSPost2010Prop37
 90
       50
102
RTVSPost2010PropOp37
 70
     1
102
RTVSPost2010Prop38
140
0.0
102
RTVSPost2010PropOp38
 70
     1
102
RTVSPost2010Prop39
140
1.0
102
RTVSPost2010PropOp39
 70
     1
102
RTVSPost2010Prop40
 90
        0
102
RTVSPost2010PropOp40
 70
     1
102
RTVSPost2010Prop41ColorIndex
 90
       18
102
RTVSPost2010Prop41ColorRGB
 90
        0
102
RTVSPost2010PropOp41
 70
     1
102
RTVSPost2010Prop42
 90
       50
102
RTVSPost2010PropOp42
 70
     1
102
RTVSPost2010Prop43
 90
        3
102
RTVSPost2010PropOp43
 70
     1
102
RTVSPost2010Prop44ColorIndex
 90
        5
102
RTVSPost2010Prop44ColorRGB
 90
      255
102
RTVSPost2010PropOp44
 70
     1
102
RTVSPost2010Prop45
280
     0
102
RTVSPost2010PropOp45
 70
     1
102
RTVSPost2010Prop46
 90
       50
102
RTVSPost2010PropOp46
 70
     1
102
RTVSPost2010Prop47
 90
       50
102
RTVSPost2010PropOp47
 70
     1
102
RTVSPost2010Prop48
 90
       50
102
RTVSPost2010PropOp48
 70
     1
102
RTVSPost2010Prop49
280
     0
102
RTVSPost2010PropOp49
 70
     1
102
RTVSPost2010Prop50
 90
       50
102
RTVSPost2010PropOp50
 70
     1
102
RTVSPost2010Prop51ColorIndex
 90
      256
102
RTVSPost2010Prop51ColorRGB
 90
-16777216
102
RTVSPost2010PropOp51
 70
     0
102
RTVSPost2010Prop52
140
1.0
102
RTVSPost2010PropOp52
 70
     0
102
RTVSPost2010Prop53
 90
        2
102
RTVSPost2010PropOp53
 70
     1
102
RTVSPost2010Prop54
  1
strokes_ogs.tif
102
RTVSPost2010PropOp54
 70
     1
102
RTVSPost2010Prop55
280
     0
102
RTVSPost2010PropOp55
 70
     1
102
RTVSPost2010Prop56
140
1.0
102
RTVSPost2010PropOp56
 70
     1
102
RTVSPost2010Prop57
140
1.0
102
RTVSPost2010PropOp57
 70
     1
  0
XRECORD
  5
4DB
102
{ACAD_REACTORS
330
4DA
102
}
330
4DA
100
AcDbXrecord
280
     1
102
RTVSPropertyOp0
 70
     1
102
RTVSPropertyOp1
 70
     1
102
RTVSPropertyOp2
 70
     1
102
RTVSPropertyOp3
 70
     1
102
RTVSPropertyOp4
 70
     1
102
RTVSPropertyOp5
 70
     1
102
RTVSPropertyOp6
 70
     1
102
RTVSPropertyOp7
 70
     1
102
RTVSPropertyOp8
 70
     1
102
RTVSPropertyOp9
 70
     1
102
RTVSPropertyOp10
 70
     1
102
RTVSPropertyOp11
 70
     1
102
RTVSPropertyOp12
 70
     1
102
RTVSPropertyOp13
 70
     1
102
RTVSPropertyOp14
 70
     1
102
RTVSPropertyOp15
 70
     1
102
RTVSPropertyOp16
 70
     1
102
RTVSPropertyOp17
 70
     1
102
RTVSPropertyOp18
 70
     1
102
RTVSPropertyOp19
 70
     1
102
RTVSPropertyOp20
 70
     1
102
RTVSPropertyOp21
 70
     1
102
RTVSPropertyOp22
 70
     1
102
RTVSPropertyOp23
 70
     1
102
RTVSPropertyOp24
 70
     1
102
RTVSPropertyOp25
 70
     1
102
RTVSPropertyOp26
 70
     1
102
RTVSPropertyOp27
 70
     1
102
RTVSPropertyOp28
 70
     1
102
RTVSPropertyOp29
 70
     1
102
RTVSPropertyOp30
 70
     1
102
RTVSPropertyOp31
 70
     1
102
RTVSPropertyOp32
 70
     1
102
RTVSPropertyOp33
 70
     1
102
RTVSPropertyOp34
 70
     1
102
RTVSPropertyOp35
 70
     1
102
RTVSPropertyOp36
 70
     1
102
RTVSPropertyOp37
 70
     1
102
RTVSPropertyOp38
 70
     1
102
RTVSPropertyOp39
 70
     1
102
RTVSPropertyOp40
 70
     1
102
RTVSPropertyOp41
 70
     1
102
RTVSPropertyOp42
 70
     1
102
RTVSPropertyOp43
 70
     1
102
RTVSPropertyOp44
 70
     1
102
RTVSPropertyOp45
 70
     1
102
RTVSPropertyOp46
 70
     1
102
RTVSPropertyOp47
 70
     1
102
RTVSPropertyOp48
 70
     1
102
RTVSPropertyOp49
 70
     1
102
RTVSPropertyOp50
 70
     1
102
RTVSPropertyOp51
 70
     0
102
RTVSPropertyOp52
 70
     0
102
RTVSPropertyOp53
 70
     1
102
RTVSPropertyOp54
 70
     1
102
RTVSPropertyOp55
 70
     1
102
RTVSPropertyOp56
 70
     1
102
RTVSPropertyOp57
 70
     1
102
RTVSPost2010Prop28
280
     0
102
RTVSPost2010PropOp28
 70
     1
102
RTVSPost2010Prop29
280
     1
102
RTVSPost2010PropOp29
 70
     1
102
RTVSPost2010Prop30
280
     1
102
RTVSPost2010PropOp30
 70
     1
102
RTVSPost2010Prop31
280
     0
102
RTVSPost2010PropOp31
 70
     1
102
RTVSPost2010Prop32
280
     0
102
RTVSPost2010PropOp32
 70
     1
102
RTVSPost2010Prop33
280
     0
102
RTVSPost2010PropOp33
 70
     1
102
RTVSPost2010Prop34
280
     0
102
RTVSPost2010PropOp34
 70
     1
102
RTVSPost2010Prop35
280
     0
102
RTVSPost2010PropOp35
 70
     1
102
RTVSPost2010Prop36
280
     0
102
RTVSPost2010PropOp36
 70
     1
102
RTVSPost2010Prop37
 90
       50
102
RTVSPost2010PropOp37
 70
     1
102
RTVSPost2010Prop38
140
0.0
102
RTVSPost2010PropOp38
 70
     1
102
RTVSPost2010Prop39
140
1.0
102
RTVSPost2010PropOp39
 70
     1
102
RTVSPost2010Prop40
 90
        0
102
RTVSPost2010PropOp40
 70
     1
102
RTVSPost2010Prop41ColorIndex
 90
       18
102
RTVSPost2010Prop41ColorRGB
 90
        0
102
RTVSPost2010PropOp41
 70
     1
102
RTVSPost2010Prop42
 90
       50
102
RTVSPost2010PropOp42
 70
     1
102
RTVSPost2010Prop43
 90
        3
102
RTVSPost2010PropOp43
 70
     1
102
RTVSPost2010Prop44ColorIndex
 90
        5
102
RTVSPost2010Prop44ColorRGB
 90
      255
102
RTVSPost2010PropOp44
 70
     1
102
RTVSPost2010Prop45
280
     0
102
RTVSPost2010PropOp45
 70
     1
102
RTVSPost2010Prop46
 90
       50
102
RTVSPost2010PropOp46
 70
     1
102
RTVSPost2010Prop47
 90
       50
102
RTVSPost2010PropOp47
 70
     1
102
RTVSPost2010Prop48
 90
       50
102
RTVSPost2010PropOp48
 70
     1
102
RTVSPost2010Prop49
280
     0
102
RTVSPost2010PropOp49
 70
     1
102
RTVSPost2010Prop50
 90
       50
102
RTVSPost2010PropOp50
 70
     1
102
RTVSPost2010Prop51ColorIndex
 90
      256
102
RTVSPost2010Prop51ColorRGB
 90
-16777216
102
RTVSPost2010PropOp51
 70
     0
102
RTVSPost2010Prop52
140
1.0
102
RTVSPost2010PropOp52
 70
     0
102
RTVSPost2010Prop53
 90
        2
102
RTVSPost2010PropOp53
 70
     1
102
RTVSPost2010Prop54
  1
strokes_ogs.tif
102
RTVSPost2010PropOp54
 70
     1
102
RTVSPost2010Prop55
280
     0
102
RTVSPost2010PropOp55
 70
     1
102
RTVSPost2010Prop56
140
1.0
102
RTVSPost2010PropOp56
 70
     1
102
RTVSPost2010Prop57
140
1.0
102
RTVSPost2010PropOp57
 70
     1
  0
XRECORD
  5
4E3
102
{ACAD_REACTORS
330
4E2
102
}
330
4E2
100
AcDbXrecord
280
     1
102
RTVSPropertyOp0
 70
     1
102
RTVSPropertyOp1
 70
     1
102
RTVSPropertyOp2
 70
     1
102
RTVSPropertyOp3
 70
     1
102
RTVSPropertyOp4
 70
     1
102
RTVSPropertyOp5
 70
     1
102
RTVSPropertyOp6
 70
     1
102
RTVSPropertyOp7
 70
     1
102
RTVSPropertyOp8
 70
     1
102
RTVSPropertyOp9
 70
     1
102
RTVSPropertyOp10
 70
     1
102
RTVSPropertyOp11
 70
     1
102
RTVSPropertyOp12
 70
     1
102
RTVSPropertyOp13
 70
     1
102
RTVSPropertyOp14
 70
     1
102
RTVSPropertyOp15
 70
     1
102
RTVSPropertyOp16
 70
     1
102
RTVSPropertyOp17
 70
     1
102
RTVSPropertyOp18
 70
     1
102
RTVSPropertyOp19
 70
     1
102
RTVSPropertyOp20
 70
     1
102
RTVSPropertyOp21
 70
     1
102
RTVSPropertyOp22
 70
     1
102
RTVSPropertyOp23
 70
     1
102
RTVSPropertyOp24
 70
     1
102
RTVSPropertyOp25
 70
     1
102
RTVSPropertyOp26
 70
     1
102
RTVSPropertyOp27
 70
     1
102
RTVSPropertyOp28
 70
     1
102
RTVSPropertyOp29
 70
     1
102
RTVSPropertyOp30
 70
     1
102
RTVSPropertyOp31
 70
     1
102
RTVSPropertyOp32
 70
     1
102
RTVSPropertyOp33
 70
     1
102
RTVSPropertyOp34
 70
     1
102
RTVSPropertyOp35
 70
     1
102
RTVSPropertyOp36
 70
     1
102
RTVSPropertyOp37
 70
     1
102
RTVSPropertyOp38
 70
     1
102
RTVSPropertyOp39
 70
     1
102
RTVSPropertyOp40
 70
     1
102
RTVSPropertyOp41
 70
     1
102
RTVSPropertyOp42
 70
     1
102
RTVSPropertyOp43
 70
     1
102
RTVSPropertyOp44
 70
     1
102
RTVSPropertyOp45
 70
     1
102
RTVSPropertyOp46
 70
     1
102
RTVSPropertyOp47
 70
     1
102
RTVSPropertyOp48
 70
     1
102
RTVSPropertyOp49
 70
     1
102
RTVSPropertyOp50
 70
     1
102
RTVSPropertyOp51
 70
     0
102
RTVSPropertyOp52
 70
     0
102
RTVSPropertyOp53
 70
     1
102
RTVSPropertyOp54
 70
     1
102
RTVSPropertyOp55
 70
     1
102
RTVSPropertyOp56
 70
     1
102
RTVSPropertyOp57
 70
     1
102
RTVSPost2010Prop28
280
     0
102
RTVSPost2010PropOp28
 70
     1
102
RTVSPost2010Prop29
280
     1
102
RTVSPost2010PropOp29
 70
     1
102
RTVSPost2010Prop30
280
     1
102
RTVSPost2010PropOp30
 70
     1
102
RTVSPost2010Prop31
280
     0
102
RTVSPost2010PropOp31
 70
     1
102
RTVSPost2010Prop32
280
     0
102
RTVSPost2010PropOp32
 70
     1
102
RTVSPost2010Prop33
280
     0
102
RTVSPost2010PropOp33
 70
     1
102
RTVSPost2010Prop34
280
     0
102
RTVSPost2010PropOp34
 70
     1
102
RTVSPost2010Prop35
280
     0
102
RTVSPost2010PropOp35
 70
     1
102
RTVSPost2010Prop36
280
     0
102
RTVSPost2010PropOp36
 70
     1
102
RTVSPost2010Prop37
 90
       50
102
RTVSPost2010PropOp37
 70
     1
102
RTVSPost2010Prop38
140
0.0
102
RTVSPost2010PropOp38
 70
     1
102
RTVSPost2010Prop39
140
1.0
102
RTVSPost2010PropOp39
 70
     1
102
RTVSPost2010Prop40
 90
        0
102
RTVSPost2010PropOp40
 70
     1
102
RTVSPost2010Prop41ColorIndex
 90
       18
102
RTVSPost2010Prop41ColorRGB
 90
        0
102
RTVSPost2010PropOp41
 70
     1
102
RTVSPost2010Prop42
 90
       50
102
RTVSPost2010PropOp42
 70
     1
102
RTVSPost2010Prop43
 90
        3
102
RTVSPost2010PropOp43
 70
     1
102
RTVSPost2010Prop44ColorIndex
 90
        5
102
RTVSPost2010Prop44ColorRGB
 90
      255
102
RTVSPost2010PropOp44
 70
     1
102
RTVSPost2010Prop45
280
     0
102
RTVSPost2010PropOp45
 70
     1
102
RTVSPost2010Prop46
 90
       50
102
RTVSPost2010PropOp46
 70
     1
102
RTVSPost2010Prop47
 90
       50
102
RTVSPost2010PropOp47
 70
     1
102
RTVSPost2010Prop48
 90
       50
102
RTVSPost2010PropOp48
 70
     1
102
RTVSPost2010Prop49
280
     0
102
RTVSPost2010PropOp49
 70
     1
102
RTVSPost2010Prop50
 90
       50
102
RTVSPost2010PropOp50
 70
     1
102
RTVSPost2010Prop51ColorIndex
 90
      256
102
RTVSPost2010Prop51ColorRGB
 90
-16777216
102
RTVSPost2010PropOp51
 70
     0
102
RTVSPost2010Prop52
140
1.0
102
RTVSPost2010PropOp52
 70
     0
102
RTVSPost2010Prop53
 90
        2
102
RTVSPost2010PropOp53
 70
     1
102
RTVSPost2010Prop54
  1
strokes_ogs.tif
102
RTVSPost2010PropOp54
 70
     1
102
RTVSPost2010Prop55
280
     0
102
RTVSPost2010PropOp55
 70
     1
102
RTVSPost2010Prop56
140
1.0
102
RTVSPost2010PropOp56
 70
     1
102
RTVSPost2010Prop57
140
1.0
102
RTVSPost2010PropOp57
 70
     1
  0
XRECORD
  5
4EB
102
{ACAD_REACTORS
330
4EA
102
}
330
4EA
100
AcDbXrecord
280
     1
102
RTVSPropertyOp0
 70
     1
102
RTVSPropertyOp1
 70
     1
102
RTVSPropertyOp2
 70
     1
102
RTVSPropertyOp3
 70
     1
102
RTVSPropertyOp4
 70
     1
102
RTVSPropertyOp5
 70
     1
102
RTVSPropertyOp6
 70
     1
102
RTVSPropertyOp7
 70
     1
102
RTVSPropertyOp8
 70
     1
102
RTVSPropertyOp9
 70
     1
102
RTVSPropertyOp10
 70
     1
102
RTVSPropertyOp11
 70
     1
102
RTVSPropertyOp12
 70
     1
102
RTVSPropertyOp13
 70
     1
102
RTVSPropertyOp14
 70
     1
102
RTVSPropertyOp15
 70
     1
102
RTVSPropertyOp16
 70
     1
102
RTVSPropertyOp17
 70
     1
102
RTVSPropertyOp18
 70
     1
102
RTVSPropertyOp19
 70
     1
102
RTVSPropertyOp20
 70
     1
102
RTVSPropertyOp21
 70
     1
102
RTVSPropertyOp22
 70
     1
102
RTVSPropertyOp23
 70
     1
102
RTVSPropertyOp24
 70
     1
102
RTVSPropertyOp25
 70
     1
102
RTVSPropertyOp26
 70
     1
102
RTVSPropertyOp27
 70
     1
102
RTVSPropertyOp28
 70
     1
102
RTVSPropertyOp29
 70
     1
102
RTVSPropertyOp30
 70
     1
102
RTVSPropertyOp31
 70
     1
102
RTVSPropertyOp32
 70
     1
102
RTVSPropertyOp33
 70
     1
102
RTVSPropertyOp34
 70
     1
102
RTVSPropertyOp35
 70
     1
102
RTVSPropertyOp36
 70
     1
102
RTVSPropertyOp37
 70
     1
102
RTVSPropertyOp38
 70
     1
102
RTVSPropertyOp39
 70
     1
102
RTVSPropertyOp40
 70
     1
102
RTVSPropertyOp41
 70
     1
102
RTVSPropertyOp42
 70
     1
102
RTVSPropertyOp43
 70
     1
102
RTVSPropertyOp44
 70
     1
102
RTVSPropertyOp45
 70
     1
102
RTVSPropertyOp46
 70
     1
102
RTVSPropertyOp47
 70
     1
102
RTVSPropertyOp48
 70
     1
102
RTVSPropertyOp49
 70
     1
102
RTVSPropertyOp50
 70
     1
102
RTVSPropertyOp51
 70
     0
102
RTVSPropertyOp52
 70
     0
102
RTVSPropertyOp53
 70
     1
102
RTVSPropertyOp54
 70
     1
102
RTVSPropertyOp55
 70
     1
102
RTVSPropertyOp56
 70
     1
102
RTVSPropertyOp57
 70
     1
102
RTVSPost2010Prop28
280
     0
102
RTVSPost2010PropOp28
 70
     1
102
RTVSPost2010Prop29
280
     1
102
RTVSPost2010PropOp29
 70
     1
102
RTVSPost2010Prop30
280
     1
102
RTVSPost2010PropOp30
 70
     1
102
RTVSPost2010Prop31
280
     0
102
RTVSPost2010PropOp31
 70
     1
102
RTVSPost2010Prop32
280
     0
102
RTVSPost2010PropOp32
 70
     1
102
RTVSPost2010Prop33
280
     0
102
RTVSPost2010PropOp33
 70
     1
102
RTVSPost2010Prop34
280
     0
102
RTVSPost2010PropOp34
 70
     1
102
RTVSPost2010Prop35
280
     0
102
RTVSPost2010PropOp35
 70
     1
102
RTVSPost2010Prop36
280
     0
102
RTVSPost2010PropOp36
 70
     1
102
RTVSPost2010Prop37
 90
       50
102
RTVSPost2010PropOp37
 70
     1
102
RTVSPost2010Prop38
140
0.0
102
RTVSPost2010PropOp38
 70
     1
102
RTVSPost2010Prop39
140
1.0
102
RTVSPost2010PropOp39
 70
     1
102
RTVSPost2010Prop40
 90
        0
102
RTVSPost2010PropOp40
 70
     1
102
RTVSPost2010Prop41ColorIndex
 90
       18
102
RTVSPost2010Prop41ColorRGB
 90
        0
102
RTVSPost2010PropOp41
 70
     1
102
RTVSPost2010Prop42
 90
       50
102
RTVSPost2010PropOp42
 70
     1
102
RTVSPost2010Prop43
 90
        3
102
RTVSPost2010PropOp43
 70
     1
102
RTVSPost2010Prop44ColorIndex
 90
        5
102
RTVSPost2010Prop44ColorRGB
 90
      255
102
RTVSPost2010PropOp44
 70
     1
102
RTVSPost2010Prop45
280
     0
102
RTVSPost2010PropOp45
 70
     1
102
RTVSPost2010Prop46
 90
       50
102
RTVSPost2010PropOp46
 70
     1
102
RTVSPost2010Prop47
 90
       50
102
RTVSPost2010PropOp47
 70
     1
102
RTVSPost2010Prop48
 90
       50
102
RTVSPost2010PropOp48
 70
     1
102
RTVSPost2010Prop49
280
     0
102
RTVSPost2010PropOp49
 70
     1
102
RTVSPost2010Prop50
 90
       50
102
RTVSPost2010PropOp50
 70
     1
102
RTVSPost2010Prop51ColorIndex
 90
      256
102
RTVSPost2010Prop51ColorRGB
 90
-16777216
102
RTVSPost2010PropOp51
 70
     0
102
RTVSPost2010Prop52
140
1.0
102
RTVSPost2010PropOp52
 70
     0
102
RTVSPost2010Prop53
 90
        2
102
RTVSPost2010PropOp53
 70
     1
102
RTVSPost2010Prop54
  1
strokes_ogs.tif
102
RTVSPost2010PropOp54
 70
     1
102
RTVSPost2010Prop55
280
     0
102
RTVSPost2010PropOp55
 70
     1
102
RTVSPost2010Prop56
140
1.0
102
RTVSPost2010PropOp56
 70
     1
102
RTVSPost2010Prop57
140
1.0
102
RTVSPost2010PropOp57
 70
     1
  0
XRECORD
  5
4DF
102
{ACAD_REACTORS
330
4DE
102
}
330
4DE
100
AcDbXrecord
280
     1
102
RTVSPropertyOp0
 70
     1
102
RTVSPropertyOp1
 70
     1
102
RTVSPropertyOp2
 70
     1
102
RTVSPropertyOp3
 70
     1
102
RTVSPropertyOp4
 70
     1
102
RTVSPropertyOp5
 70
     1
102
RTVSPropertyOp6
 70
     1
102
RTVSPropertyOp7
 70
     1
102
RTVSPropertyOp8
 70
     1
102
RTVSPropertyOp9
 70
     1
102
RTVSPropertyOp10
 70
     1
102
RTVSPropertyOp11
 70
     1
102
RTVSPropertyOp12
 70
     1
102
RTVSPropertyOp13
 70
     1
102
RTVSPropertyOp14
 70
     1
102
RTVSPropertyOp15
 70
     1
102
RTVSPropertyOp16
 70
     1
102
RTVSPropertyOp17
 70
     1
102
RTVSPropertyOp18
 70
     1
102
RTVSPropertyOp19
 70
     1
102
RTVSPropertyOp20
 70
     1
102
RTVSPropertyOp21
 70
     1
102
RTVSPropertyOp22
 70
     1
102
RTVSPropertyOp23
 70
     1
102
RTVSPropertyOp24
 70
     1
102
RTVSPropertyOp25
 70
     1
102
RTVSPropertyOp26
 70
     1
102
RTVSPropertyOp27
 70
     1
102
RTVSPropertyOp28
 70
     1
102
RTVSPropertyOp29
 70
     1
102
RTVSPropertyOp30
 70
     1
102
RTVSPropertyOp31
 70
     1
102
RTVSPropertyOp32
 70
     1
102
RTVSPropertyOp33
 70
     1
102
RTVSPropertyOp34
 70
     1
102
RTVSPropertyOp35
 70
     1
102
RTVSPropertyOp36
 70
     1
102
RTVSPropertyOp37
 70
     1
102
RTVSPropertyOp38
 70
     1
102
RTVSPropertyOp39
 70
     1
102
RTVSPropertyOp40
 70
     1
102
RTVSPropertyOp41
 70
     1
102
RTVSPropertyOp42
 70
     1
102
RTVSPropertyOp43
 70
     1
102
RTVSPropertyOp44
 70
     1
102
RTVSPropertyOp45
 70
     1
102
RTVSPropertyOp46
 70
     1
102
RTVSPropertyOp47
 70
     1
102
RTVSPropertyOp48
 70
     1
102
RTVSPropertyOp49
 70
     1
102
RTVSPropertyOp50
 70
     1
102
RTVSPropertyOp51
 70
     0
102
RTVSPropertyOp52
 70
     0
102
RTVSPropertyOp53
 70
     1
102
RTVSPropertyOp54
 70
     1
102
RTVSPropertyOp55
 70
     1
102
RTVSPropertyOp56
 70
     1
102
RTVSPropertyOp57
 70
     1
102
RTVSPost2010Prop28
280
     0
102
RTVSPost2010PropOp28
 70
     1
102
RTVSPost2010Prop29
280
     1
102
RTVSPost2010PropOp29
 70
     1
102
RTVSPost2010Prop30
280
     1
102
RTVSPost2010PropOp30
 70
     1
102
RTVSPost2010Prop31
280
     0
102
RTVSPost2010PropOp31
 70
     1
102
RTVSPost2010Prop32
280
     0
102
RTVSPost2010PropOp32
 70
     1
102
RTVSPost2010Prop33
280
     0
102
RTVSPost2010PropOp33
 70
     1
102
RTVSPost2010Prop34
280
     0
102
RTVSPost2010PropOp34
 70
     1
102
RTVSPost2010Prop35
280
     0
102
RTVSPost2010PropOp35
 70
     1
102
RTVSPost2010Prop36
280
     0
102
RTVSPost2010PropOp36
 70
     1
102
RTVSPost2010Prop37
 90
       50
102
RTVSPost2010PropOp37
 70
     1
102
RTVSPost2010Prop38
140
0.0
102
RTVSPost2010PropOp38
 70
     1
102
RTVSPost2010Prop39
140
1.0
102
RTVSPost2010PropOp39
 70
     1
102
RTVSPost2010Prop40
 90
        0
102
RTVSPost2010PropOp40
 70
     1
102
RTVSPost2010Prop41ColorIndex
 90
       18
102
RTVSPost2010Prop41ColorRGB
 90
        0
102
RTVSPost2010PropOp41
 70
     1
102
RTVSPost2010Prop42
 90
       50
102
RTVSPost2010PropOp42
 70
     1
102
RTVSPost2010Prop43
 90
        3
102
RTVSPost2010PropOp43
 70
     1
102
RTVSPost2010Prop44ColorIndex
 90
        5
102
RTVSPost2010Prop44ColorRGB
 90
      255
102
RTVSPost2010PropOp44
 70
     1
102
RTVSPost2010Prop45
280
     0
102
RTVSPost2010PropOp45
 70
     1
102
RTVSPost2010Prop46
 90
       50
102
RTVSPost2010PropOp46
 70
     1
102
RTVSPost2010Prop47
 90
       50
102
RTVSPost2010PropOp47
 70
     1
102
RTVSPost2010Prop48
 90
       50
102
RTVSPost2010PropOp48
 70
     1
102
RTVSPost2010Prop49
280
     0
102
RTVSPost2010PropOp49
 70
     1
102
RTVSPost2010Prop50
 90
       50
102
RTVSPost2010PropOp50
 70
     1
102
RTVSPost2010Prop51ColorIndex
 90
      256
102
RTVSPost2010Prop51ColorRGB
 90
-16777216
102
RTVSPost2010PropOp51
 70
     0
102
RTVSPost2010Prop52
140
1.0
102
RTVSPost2010PropOp52
 70
     0
102
RTVSPost2010Prop53
 90
        2
102
RTVSPost2010PropOp53
 70
     1
102
RTVSPost2010Prop54
  1
strokes_ogs.tif
102
RTVSPost2010PropOp54
 70
     1
102
RTVSPost2010Prop55
280
     0
102
RTVSPost2010PropOp55
 70
     1
102
RTVSPost2010Prop56
140
1.0
102
RTVSPost2010PropOp56
 70
     1
102
RTVSPost2010Prop57
140
1.0
102
RTVSPost2010PropOp57
 70
     1
  0
XRECORD
  5
4E1
102
{ACAD_REACTORS
330
4E0
102
}
330
4E0
100
AcDbXrecord
280
     1
102
RTVSPropertyOp0
 70
     1
102
RTVSPropertyOp1
 70
     1
102
RTVSPropertyOp2
 70
     1
102
RTVSPropertyOp3
 70
     1
102
RTVSPropertyOp4
 70
     1
102
RTVSPropertyOp5
 70
     1
102
RTVSPropertyOp6
 70
     1
102
RTVSPropertyOp7
 70
     1
102
RTVSPropertyOp8
 70
     1
102
RTVSPropertyOp9
 70
     1
102
RTVSPropertyOp10
 70
     1
102
RTVSPropertyOp11
 70
     1
102
RTVSPropertyOp12
 70
     1
102
RTVSPropertyOp13
 70
     1
102
RTVSPropertyOp14
 70
     1
102
RTVSPropertyOp15
 70
     1
102
RTVSPropertyOp16
 70
     1
102
RTVSPropertyOp17
 70
     1
102
RTVSPropertyOp18
 70
     1
102
RTVSPropertyOp19
 70
     1
102
RTVSPropertyOp20
 70
     1
102
RTVSPropertyOp21
 70
     1
102
RTVSPropertyOp22
 70
     1
102
RTVSPropertyOp23
 70
     1
102
RTVSPropertyOp24
 70
     1
102
RTVSPropertyOp25
 70
     1
102
RTVSPropertyOp26
 70
     1
102
RTVSPropertyOp27
 70
     1
102
RTVSPropertyOp28
 70
     1
102
RTVSPropertyOp29
 70
     1
102
RTVSPropertyOp30
 70
     1
102
RTVSPropertyOp31
 70
     1
102
RTVSPropertyOp32
 70
     1
102
RTVSPropertyOp33
 70
     1
102
RTVSPropertyOp34
 70
     1
102
RTVSPropertyOp35
 70
     1
102
RTVSPropertyOp36
 70
     1
102
RTVSPropertyOp37
 70
     1
102
RTVSPropertyOp38
 70
     1
102
RTVSPropertyOp39
 70
     1
102
RTVSPropertyOp40
 70
     1
102
RTVSPropertyOp41
 70
     1
102
RTVSPropertyOp42
 70
     1
102
RTVSPropertyOp43
 70
     1
102
RTVSPropertyOp44
 70
     1
102
RTVSPropertyOp45
 70
     1
102
RTVSPropertyOp46
 70
     1
102
RTVSPropertyOp47
 70
     1
102
RTVSPropertyOp48
 70
     1
102
RTVSPropertyOp49
 70
     1
102
RTVSPropertyOp50
 70
     1
102
RTVSPropertyOp51
 70
     0
102
RTVSPropertyOp52
 70
     0
102
RTVSPropertyOp53
 70
     1
102
RTVSPropertyOp54
 70
     1
102
RTVSPropertyOp55
 70
     1
102
RTVSPropertyOp56
 70
     1
102
RTVSPropertyOp57
 70
     1
102
RTVSPost2010Prop28
280
     0
102
RTVSPost2010PropOp28
 70
     1
102
RTVSPost2010Prop29
280
     1
102
RTVSPost2010PropOp29
 70
     1
102
RTVSPost2010Prop30
280
     1
102
RTVSPost2010PropOp30
 70
     1
102
RTVSPost2010Prop31
280
     0
102
RTVSPost2010PropOp31
 70
     1
102
RTVSPost2010Prop32
280
     0
102
RTVSPost2010PropOp32
 70
     1
102
RTVSPost2010Prop33
280
     0
102
RTVSPost2010PropOp33
 70
     1
102
RTVSPost2010Prop34
280
     0
102
RTVSPost2010PropOp34
 70
     1
102
RTVSPost2010Prop35
280
     0
102
RTVSPost2010PropOp35
 70
     1
102
RTVSPost2010Prop36
280
     0
102
RTVSPost2010PropOp36
 70
     1
102
RTVSPost2010Prop37
 90
       50
102
RTVSPost2010PropOp37
 70
     1
102
RTVSPost2010Prop38
140
0.0
102
RTVSPost2010PropOp38
 70
     1
102
RTVSPost2010Prop39
140
1.0
102
RTVSPost2010PropOp39
 70
     1
102
RTVSPost2010Prop40
 90
        0
102
RTVSPost2010PropOp40
 70
     1
102
RTVSPost2010Prop41ColorIndex
 90
       18
102
RTVSPost2010Prop41ColorRGB
 90
        0
102
RTVSPost2010PropOp41
 70
     1
102
RTVSPost2010Prop42
 90
       50
102
RTVSPost2010PropOp42
 70
     1
102
RTVSPost2010Prop43
 90
        3
102
RTVSPost2010PropOp43
 70
     1
102
RTVSPost2010Prop44ColorIndex
 90
        5
102
RTVSPost2010Prop44ColorRGB
 90
      255
102
RTVSPost2010PropOp44
 70
     1
102
RTVSPost2010Prop45
280
     0
102
RTVSPost2010PropOp45
 70
     1
102
RTVSPost2010Prop46
 90
       50
102
RTVSPost2010PropOp46
 70
     1
102
RTVSPost2010Prop47
 90
       50
102
RTVSPost2010PropOp47
 70
     1
102
RTVSPost2010Prop48
 90
       50
102
RTVSPost2010PropOp48
 70
     1
102
RTVSPost2010Prop49
280
     0
102
RTVSPost2010PropOp49
 70
     1
102
RTVSPost2010Prop50
 90
       50
102
RTVSPost2010PropOp50
 70
     1
102
RTVSPost2010Prop51ColorIndex
 90
      256
102
RTVSPost2010Prop51ColorRGB
 90
-16777216
102
RTVSPost2010PropOp51
 70
     0
102
RTVSPost2010Prop52
140
1.0
102
RTVSPost2010PropOp52
 70
     0
102
RTVSPost2010Prop53
 90
        2
102
RTVSPost2010PropOp53
 70
     1
102
RTVSPost2010Prop54
  1
strokes_ogs.tif
102
RTVSPost2010PropOp54
 70
     1
102
RTVSPost2010Prop55
280
     0
102
RTVSPost2010PropOp55
 70
     1
102
RTVSPost2010Prop56
140
1.0
102
RTVSPost2010PropOp56
 70
     1
102
RTVSPost2010Prop57
140
1.0
102
RTVSPost2010PropOp57
 70
     1
  0
XRECORD
  5
4E9
102
{ACAD_REACTORS
330
4E8
102
}
330
4E8
100
AcDbXrecord
280
     1
102
RTVSPropertyOp0
 70
     1
102
RTVSPropertyOp1
 70
     1
102
RTVSPropertyOp2
 70
     1
102
RTVSPropertyOp3
 70
     1
102
RTVSPropertyOp4
 70
     1
102
RTVSPropertyOp5
 70
     1
102
RTVSPropertyOp6
 70
     1
102
RTVSPropertyOp7
 70
     1
102
RTVSPropertyOp8
 70
     1
102
RTVSPropertyOp9
 70
     1
102
RTVSPropertyOp10
 70
     1
102
RTVSPropertyOp11
 70
     1
102
RTVSPropertyOp12
 70
     1
102
RTVSPropertyOp13
 70
     1
102
RTVSPropertyOp14
 70
     1
102
RTVSPropertyOp15
 70
     1
102
RTVSPropertyOp16
 70
     1
102
RTVSPropertyOp17
 70
     1
102
RTVSPropertyOp18
 70
     1
102
RTVSPropertyOp19
 70
     1
102
RTVSPropertyOp20
 70
     1
102
RTVSPropertyOp21
 70
     1
102
RTVSPropertyOp22
 70
     1
102
RTVSPropertyOp23
 70
     1
102
RTVSPropertyOp24
 70
     1
102
RTVSPropertyOp25
 70
     1
102
RTVSPropertyOp26
 70
     1
102
RTVSPropertyOp27
 70
     1
102
RTVSPropertyOp28
 70
     1
102
RTVSPropertyOp29
 70
     1
102
RTVSPropertyOp30
 70
     1
102
RTVSPropertyOp31
 70
     1
102
RTVSPropertyOp32
 70
     1
102
RTVSPropertyOp33
 70
     1
102
RTVSPropertyOp34
 70
     1
102
RTVSPropertyOp35
 70
     1
102
RTVSPropertyOp36
 70
     1
102
RTVSPropertyOp37
 70
     1
102
RTVSPropertyOp38
 70
     1
102
RTVSPropertyOp39
 70
     1
102
RTVSPropertyOp40
 70
     1
102
RTVSPropertyOp41
 70
     1
102
RTVSPropertyOp42
 70
     1
102
RTVSPropertyOp43
 70
     1
102
RTVSPropertyOp44
 70
     1
102
RTVSPropertyOp45
 70
     1
102
RTVSPropertyOp46
 70
     1
102
RTVSPropertyOp47
 70
     1
102
RTVSPropertyOp48
 70
     1
102
RTVSPropertyOp49
 70
     1
102
RTVSPropertyOp50
 70
     1
102
RTVSPropertyOp51
 70
     0
102
RTVSPropertyOp52
 70
     0
102
RTVSPropertyOp53
 70
     1
102
RTVSPropertyOp54
 70
     1
102
RTVSPropertyOp55
 70
     1
102
RTVSPropertyOp56
 70
     1
102
RTVSPropertyOp57
 70
     1
102
RTVSPost2010Prop28
280
     0
102
RTVSPost2010PropOp28
 70
     1
102
RTVSPost2010Prop29
280
     1
102
RTVSPost2010PropOp29
 70
     1
102
RTVSPost2010Prop30
280
     1
102
RTVSPost2010PropOp30
 70
     1
102
RTVSPost2010Prop31
280
     0
102
RTVSPost2010PropOp31
 70
     1
102
RTVSPost2010Prop32
280
     0
102
RTVSPost2010PropOp32
 70
     1
102
RTVSPost2010Prop33
280
     0
102
RTVSPost2010PropOp33
 70
     1
102
RTVSPost2010Prop34
280
     0
102
RTVSPost2010PropOp34
 70
     1
102
RTVSPost2010Prop35
280
     0
102
RTVSPost2010PropOp35
 70
     1
102
RTVSPost2010Prop36
280
     0
102
RTVSPost2010PropOp36
 70
     1
102
RTVSPost2010Prop37
 90
       50
102
RTVSPost2010PropOp37
 70
     1
102
RTVSPost2010Prop38
140
0.0
102
RTVSPost2010PropOp38
 70
     1
102
RTVSPost2010Prop39
140
1.0
102
RTVSPost2010PropOp39
 70
     1
102
RTVSPost2010Prop40
 90
        0
102
RTVSPost2010PropOp40
 70
     1
102
RTVSPost2010Prop41ColorIndex
 90
       18
102
RTVSPost2010Prop41ColorRGB
 90
        0
102
RTVSPost2010PropOp41
 70
     1
102
RTVSPost2010Prop42
 90
       50
102
RTVSPost2010PropOp42
 70
     1
102
RTVSPost2010Prop43
 90
        3
102
RTVSPost2010PropOp43
 70
     1
102
RTVSPost2010Prop44ColorIndex
 90
        5
102
RTVSPost2010Prop44ColorRGB
 90
      255
102
RTVSPost2010PropOp44
 70
     1
102
RTVSPost2010Prop45
280
     0
102
RTVSPost2010PropOp45
 70
     1
102
RTVSPost2010Prop46
 90
       50
102
RTVSPost2010PropOp46
 70
     1
102
RTVSPost2010Prop47
 90
       50
102
RTVSPost2010PropOp47
 70
     1
102
RTVSPost2010Prop48
 90
       50
102
RTVSPost2010PropOp48
 70
     1
102
RTVSPost2010Prop49
280
     0
102
RTVSPost2010PropOp49
 70
     1
102
RTVSPost2010Prop50
 90
       50
102
RTVSPost2010PropOp50
 70
     1
102
RTVSPost2010Prop51ColorIndex
 90
      256
102
RTVSPost2010Prop51ColorRGB
 90
-16777216
102
RTVSPost2010PropOp51
 70
     0
102
RTVSPost2010Prop52
140
1.0
102
RTVSPost2010PropOp52
 70
     0
102
RTVSPost2010Prop53
 90
        2
102
RTVSPost2010PropOp53
 70
     1
102
RTVSPost2010Prop54
  1
strokes_ogs.tif
102
RTVSPost2010PropOp54
 70
     1
102
RTVSPost2010Prop55
280
     0
102
RTVSPost2010PropOp55
 70
     1
102
RTVSPost2010Prop56
140
1.0
102
RTVSPost2010PropOp56
 70
     1
102
RTVSPost2010Prop57
140
1.0
102
RTVSPost2010PropOp57
 70
     1
  0
XRECORD
  5
4CD
102
{ACAD_REACTORS
330
4CC
102
}
330
4CC
100
AcDbXrecord
280
     1
102
RTVSPropertyOp0
 70
     1
102
RTVSPropertyOp1
 70
     1
102
RTVSPropertyOp2
 70
     1
102
RTVSPropertyOp3
 70
     1
102
RTVSPropertyOp4
 70
     1
102
RTVSPropertyOp5
 70
     1
102
RTVSPropertyOp6
 70
     1
102
RTVSPropertyOp7
 70
     1
102
RTVSPropertyOp8
 70
     1
102
RTVSPropertyOp9
 70
     1
102
RTVSPropertyOp10
 70
     1
102
RTVSPropertyOp11
 70
     1
102
RTVSPropertyOp12
 70
     1
102
RTVSPropertyOp13
 70
     1
102
RTVSPropertyOp14
 70
     1
102
RTVSPropertyOp15
 70
     1
102
RTVSPropertyOp16
 70
     1
102
RTVSPropertyOp17
 70
     1
102
RTVSPropertyOp18
 70
     1
102
RTVSPropertyOp19
 70
     1
102
RTVSPropertyOp20
 70
     1
102
RTVSPropertyOp21
 70
     1
102
RTVSPropertyOp22
 70
     1
102
RTVSPropertyOp23
 70
     1
102
RTVSPropertyOp24
 70
     1
102
RTVSPropertyOp25
 70
     1
102
RTVSPropertyOp26
 70
     1
102
RTVSPropertyOp27
 70
     1
102
RTVSPropertyOp28
 70
     1
102
RTVSPropertyOp29
 70
     1
102
RTVSPropertyOp30
 70
     1
102
RTVSPropertyOp31
 70
     1
102
RTVSPropertyOp32
 70
     1
102
RTVSPropertyOp33
 70
     1
102
RTVSPropertyOp34
 70
     1
102
RTVSPropertyOp35
 70
     1
102
RTVSPropertyOp36
 70
     1
102
RTVSPropertyOp37
 70
     1
102
RTVSPropertyOp38
 70
     1
102
RTVSPropertyOp39
 70
     1
102
RTVSPropertyOp40
 70
     1
102
RTVSPropertyOp41
 70
     1
102
RTVSPropertyOp42
 70
     1
102
RTVSPropertyOp43
 70
     1
102
RTVSPropertyOp44
 70
     1
102
RTVSPropertyOp45
 70
     1
102
RTVSPropertyOp46
 70
     1
102
RTVSPropertyOp47
 70
     1
102
RTVSPropertyOp48
 70
     1
102
RTVSPropertyOp49
 70
     1
102
RTVSPropertyOp50
 70
     1
102
RTVSPropertyOp51
 70
     0
102
RTVSPropertyOp52
 70
     0
102
RTVSPropertyOp53
 70
     1
102
RTVSPropertyOp54
 70
     1
102
RTVSPropertyOp55
 70
     1
102
RTVSPropertyOp56
 70
     1
102
RTVSPropertyOp57
 70
     1
102
RTVSPost2010Prop28
280
     0
102
RTVSPost2010PropOp28
 70
     1
102
RTVSPost2010Prop29
280
     1
102
RTVSPost2010PropOp29
 70
     1
102
RTVSPost2010Prop30
280
     1
102
RTVSPost2010PropOp30
 70
     1
102
RTVSPost2010Prop31
280
     0
102
RTVSPost2010PropOp31
 70
     1
102
RTVSPost2010Prop32
280
     0
102
RTVSPost2010PropOp32
 70
     1
102
RTVSPost2010Prop33
280
     0
102
RTVSPost2010PropOp33
 70
     1
102
RTVSPost2010Prop34
280
     0
102
RTVSPost2010PropOp34
 70
     1
102
RTVSPost2010Prop35
280
     0
102
RTVSPost2010PropOp35
 70
     1
102
RTVSPost2010Prop36
280
     0
102
RTVSPost2010PropOp36
 70
     1
102
RTVSPost2010Prop37
 90
       50
102
RTVSPost2010PropOp37
 70
     1
102
RTVSPost2010Prop38
140
0.0
102
RTVSPost2010PropOp38
 70
     1
102
RTVSPost2010Prop39
140
1.0
102
RTVSPost2010PropOp39
 70
     1
102
RTVSPost2010Prop40
 90
        0
102
RTVSPost2010PropOp40
 70
     1
102
RTVSPost2010Prop41ColorIndex
 90
       18
102
RTVSPost2010Prop41ColorRGB
 90
        0
102
RTVSPost2010PropOp41
 70
     1
102
RTVSPost2010Prop42
 90
       50
102
RTVSPost2010PropOp42
 70
     1
102
RTVSPost2010Prop43
 90
        3
102
RTVSPost2010PropOp43
 70
     1
102
RTVSPost2010Prop44ColorIndex
 90
        5
102
RTVSPost2010Prop44ColorRGB
 90
      255
102
RTVSPost2010PropOp44
 70
     1
102
RTVSPost2010Prop45
280
     0
102
RTVSPost2010PropOp45
 70
     1
102
RTVSPost2010Prop46
 90
       50
102
RTVSPost2010PropOp46
 70
     1
102
RTVSPost2010Prop47
 90
       50
102
RTVSPost2010PropOp47
 70
     1
102
RTVSPost2010Prop48
 90
       50
102
RTVSPost2010PropOp48
 70
     1
102
RTVSPost2010Prop49
280
     0
102
RTVSPost2010PropOp49
 70
     1
102
RTVSPost2010Prop50
 90
       50
102
RTVSPost2010PropOp50
 70
     1
102
RTVSPost2010Prop51ColorIndex
 90
      256
102
RTVSPost2010Prop51ColorRGB
 90
-16777216
102
RTVSPost2010PropOp51
 70
     0
102
RTVSPost2010Prop52
140
1.0
102
RTVSPost2010PropOp52
 70
     0
102
RTVSPost2010Prop53
 90
        2
102
RTVSPost2010PropOp53
 70
     1
102
RTVSPost2010Prop54
  1
strokes_ogs.tif
102
RTVSPost2010PropOp54
 70
     1
102
RTVSPost2010Prop55
280
     0
102
RTVSPost2010PropOp55
 70
     1
102
RTVSPost2010Prop56
140
1.0
102
RTVSPost2010PropOp56
 70
     1
102
RTVSPost2010Prop57
140
1.0
102
RTVSPost2010PropOp57
 70
     1
  0
XRECORD
  5
4CF
102
{ACAD_REACTORS
330
4CE
102
}
330
4CE
100
AcDbXrecord
280
     1
102
RTVSPropertyOp0
 70
     1
102
RTVSPropertyOp1
 70
     1
102
RTVSPropertyOp2
 70
     1
102
RTVSPropertyOp3
 70
     1
102
RTVSPropertyOp4
 70
     1
102
RTVSPropertyOp5
 70
     1
102
RTVSPropertyOp6
 70
     1
102
RTVSPropertyOp7
 70
     1
102
RTVSPropertyOp8
 70
     1
102
RTVSPropertyOp9
 70
     1
102
RTVSPropertyOp10
 70
     1
102
RTVSPropertyOp11
 70
     1
102
RTVSPropertyOp12
 70
     1
102
RTVSPropertyOp13
 70
     1
102
RTVSPropertyOp14
 70
     1
102
RTVSPropertyOp15
 70
     1
102
RTVSPropertyOp16
 70
     1
102
RTVSPropertyOp17
 70
     1
102
RTVSPropertyOp18
 70
     1
102
RTVSPropertyOp19
 70
     1
102
RTVSPropertyOp20
 70
     1
102
RTVSPropertyOp21
 70
     1
102
RTVSPropertyOp22
 70
     1
102
RTVSPropertyOp23
 70
     1
102
RTVSPropertyOp24
 70
     1
102
RTVSPropertyOp25
 70
     1
102
RTVSPropertyOp26
 70
     1
102
RTVSPropertyOp27
 70
     1
102
RTVSPropertyOp28
 70
     1
102
RTVSPropertyOp29
 70
     1
102
RTVSPropertyOp30
 70
     1
102
RTVSPropertyOp31
 70
     1
102
RTVSPropertyOp32
 70
     1
102
RTVSPropertyOp33
 70
     1
102
RTVSPropertyOp34
 70
     1
102
RTVSPropertyOp35
 70
     1
102
RTVSPropertyOp36
 70
     1
102
RTVSPropertyOp37
 70
     1
102
RTVSPropertyOp38
 70
     1
102
RTVSPropertyOp39
 70
     1
102
RTVSPropertyOp40
 70
     1
102
RTVSPropertyOp41
 70
     1
102
RTVSPropertyOp42
 70
     1
102
RTVSPropertyOp43
 70
     1
102
RTVSPropertyOp44
 70
     1
102
RTVSPropertyOp45
 70
     1
102
RTVSPropertyOp46
 70
     1
102
RTVSPropertyOp47
 70
     1
102
RTVSPropertyOp48
 70
     1
102
RTVSPropertyOp49
 70
     1
102
RTVSPropertyOp50
 70
     1
102
RTVSPropertyOp51
 70
     0
102
RTVSPropertyOp52
 70
     0
102
RTVSPropertyOp53
 70
     1
102
RTVSPropertyOp54
 70
     1
102
RTVSPropertyOp55
 70
     1
102
RTVSPropertyOp56
 70
     1
102
RTVSPropertyOp57
 70
     1
102
RTVSPost2010Prop28
280
     0
102
RTVSPost2010PropOp28
 70
     1
102
RTVSPost2010Prop29
280
     1
102
RTVSPost2010PropOp29
 70
     1
102
RTVSPost2010Prop30
280
     1
102
RTVSPost2010PropOp30
 70
     1
102
RTVSPost2010Prop31
280
     0
102
RTVSPost2010PropOp31
 70
     1
102
RTVSPost2010Prop32
280
     0
102
RTVSPost2010PropOp32
 70
     1
102
RTVSPost2010Prop33
280
     0
102
RTVSPost2010PropOp33
 70
     1
102
RTVSPost2010Prop34
280
     0
102
RTVSPost2010PropOp34
 70
     1
102
RTVSPost2010Prop35
280
     0
102
RTVSPost2010PropOp35
 70
     1
102
RTVSPost2010Prop36
280
     0
102
RTVSPost2010PropOp36
 70
     1
102
RTVSPost2010Prop37
 90
       50
102
RTVSPost2010PropOp37
 70
     1
102
RTVSPost2010Prop38
140
0.0
102
RTVSPost2010PropOp38
 70
     1
102
RTVSPost2010Prop39
140
1.0
102
RTVSPost2010PropOp39
 70
     1
102
RTVSPost2010Prop40
 90
        0
102
RTVSPost2010PropOp40
 70
     1
102
RTVSPost2010Prop41ColorIndex
 90
       18
102
RTVSPost2010Prop41ColorRGB
 90
        0
102
RTVSPost2010PropOp41
 70
     1
102
RTVSPost2010Prop42
 90
       50
102
RTVSPost2010PropOp42
 70
     1
102
RTVSPost2010Prop43
 90
        3
102
RTVSPost2010PropOp43
 70
     1
102
RTVSPost2010Prop44ColorIndex
 90
        5
102
RTVSPost2010Prop44ColorRGB
 90
      255
102
RTVSPost2010PropOp44
 70
     1
102
RTVSPost2010Prop45
280
     0
102
RTVSPost2010PropOp45
 70
     1
102
RTVSPost2010Prop46
 90
       50
102
RTVSPost2010PropOp46
 70
     1
102
RTVSPost2010Prop47
 90
       50
102
RTVSPost2010PropOp47
 70
     1
102
RTVSPost2010Prop48
 90
       50
102
RTVSPost2010PropOp48
 70
     1
102
RTVSPost2010Prop49
280
     0
102
RTVSPost2010PropOp49
 70
     1
102
RTVSPost2010Prop50
 90
       50
102
RTVSPost2010PropOp50
 70
     1
102
RTVSPost2010Prop51ColorIndex
 90
      256
102
RTVSPost2010Prop51ColorRGB
 90
-16777216
102
RTVSPost2010PropOp51
 70
     0
102
RTVSPost2010Prop52
140
1.0
102
RTVSPost2010PropOp52
 70
     0
102
RTVSPost2010Prop53
 90
        2
102
RTVSPost2010PropOp53
 70
     1
102
RTVSPost2010Prop54
  1
strokes_ogs.tif
102
RTVSPost2010PropOp54
 70
     1
102
RTVSPost2010Prop55
280
     0
102
RTVSPost2010PropOp55
 70
     1
102
RTVSPost2010Prop56
140
1.0
102
RTVSPost2010PropOp56
 70
     1
102
RTVSPost2010Prop57
140
1.0
102
RTVSPost2010PropOp57
 70
     1
  0
XRECORD
  5
4D1
102
{ACAD_REACTORS
330
4D0
102
}
330
4D0
100
AcDbXrecord
280
     1
102
RTVSPropertyOp0
 70
     1
102
RTVSPropertyOp1
 70
     1
102
RTVSPropertyOp2
 70
     1
102
RTVSPropertyOp3
 70
     1
102
RTVSPropertyOp4
 70
     1
102
RTVSPropertyOp5
 70
     1
102
RTVSPropertyOp6
 70
     1
102
RTVSPropertyOp7
 70
     1
102
RTVSPropertyOp8
 70
     1
102
RTVSPropertyOp9
 70
     1
102
RTVSPropertyOp10
 70
     1
102
RTVSPropertyOp11
 70
     1
102
RTVSPropertyOp12
 70
     1
102
RTVSPropertyOp13
 70
     1
102
RTVSPropertyOp14
 70
     1
102
RTVSPropertyOp15
 70
     1
102
RTVSPropertyOp16
 70
     1
102
RTVSPropertyOp17
 70
     1
102
RTVSPropertyOp18
 70
     1
102
RTVSPropertyOp19
 70
     1
102
RTVSPropertyOp20
 70
     1
102
RTVSPropertyOp21
 70
     1
102
RTVSPropertyOp22
 70
     1
102
RTVSPropertyOp23
 70
     1
102
RTVSPropertyOp24
 70
     1
102
RTVSPropertyOp25
 70
     1
102
RTVSPropertyOp26
 70
     1
102
RTVSPropertyOp27
 70
     1
102
RTVSPropertyOp28
 70
     1
102
RTVSPropertyOp29
 70
     1
102
RTVSPropertyOp30
 70
     1
102
RTVSPropertyOp31
 70
     1
102
RTVSPropertyOp32
 70
     1
102
RTVSPropertyOp33
 70
     1
102
RTVSPropertyOp34
 70
     1
102
RTVSPropertyOp35
 70
     1
102
RTVSPropertyOp36
 70
     1
102
RTVSPropertyOp37
 70
     1
102
RTVSPropertyOp38
 70
     1
102
RTVSPropertyOp39
 70
     1
102
RTVSPropertyOp40
 70
     1
102
RTVSPropertyOp41
 70
     1
102
RTVSPropertyOp42
 70
     1
102
RTVSPropertyOp43
 70
     1
102
RTVSPropertyOp44
 70
     1
102
RTVSPropertyOp45
 70
     1
102
RTVSPropertyOp46
 70
     1
102
RTVSPropertyOp47
 70
     1
102
RTVSPropertyOp48
 70
     1
102
RTVSPropertyOp49
 70
     1
102
RTVSPropertyOp50
 70
     1
102
RTVSPropertyOp51
 70
     0
102
RTVSPropertyOp52
 70
     0
102
RTVSPropertyOp53
 70
     1
102
RTVSPropertyOp54
 70
     1
102
RTVSPropertyOp55
 70
     1
102
RTVSPropertyOp56
 70
     1
102
RTVSPropertyOp57
 70
     1
102
RTVSPost2010Prop28
280
     0
102
RTVSPost2010PropOp28
 70
     1
102
RTVSPost2010Prop29
280
     1
102
RTVSPost2010PropOp29
 70
     1
102
RTVSPost2010Prop30
280
     1
102
RTVSPost2010PropOp30
 70
     1
102
RTVSPost2010Prop31
280
     0
102
RTVSPost2010PropOp31
 70
     1
102
RTVSPost2010Prop32
280
     0
102
RTVSPost2010PropOp32
 70
     1
102
RTVSPost2010Prop33
280
     0
102
RTVSPost2010PropOp33
 70
     1
102
RTVSPost2010Prop34
280
     0
102
RTVSPost2010PropOp34
 70
     1
102
RTVSPost2010Prop35
280
     0
102
RTVSPost2010PropOp35
 70
     1
102
RTVSPost2010Prop36
280
     0
102
RTVSPost2010PropOp36
 70
     1
102
RTVSPost2010Prop37
 90
       50
102
RTVSPost2010PropOp37
 70
     1
102
RTVSPost2010Prop38
140
0.0
102
RTVSPost2010PropOp38
 70
     1
102
RTVSPost2010Prop39
140
1.0
102
RTVSPost2010PropOp39
 70
     1
102
RTVSPost2010Prop40
 90
        0
102
RTVSPost2010PropOp40
 70
     1
102
RTVSPost2010Prop41ColorIndex
 90
       18
102
RTVSPost2010Prop41ColorRGB
 90
        0
102
RTVSPost2010PropOp41
 70
     1
102
RTVSPost2010Prop42
 90
       50
102
RTVSPost2010PropOp42
 70
     1
102
RTVSPost2010Prop43
 90
        3
102
RTVSPost2010PropOp43
 70
     1
102
RTVSPost2010Prop44ColorIndex
 90
        5
102
RTVSPost2010Prop44ColorRGB
 90
      255
102
RTVSPost2010PropOp44
 70
     1
102
RTVSPost2010Prop45
280
     0
102
RTVSPost2010PropOp45
 70
     1
102
RTVSPost2010Prop46
 90
       50
102
RTVSPost2010PropOp46
 70
     1
102
RTVSPost2010Prop47
 90
       50
102
RTVSPost2010PropOp47
 70
     1
102
RTVSPost2010Prop48
 90
       50
102
RTVSPost2010PropOp48
 70
     1
102
RTVSPost2010Prop49
280
     0
102
RTVSPost2010PropOp49
 70
     1
102
RTVSPost2010Prop50
 90
       50
102
RTVSPost2010PropOp50
 70
     1
102
RTVSPost2010Prop51ColorIndex
 90
      256
102
RTVSPost2010Prop51ColorRGB
 90
-16777216
102
RTVSPost2010PropOp51
 70
     0
102
RTVSPost2010Prop52
140
1.0
102
RTVSPost2010PropOp52
 70
     0
102
RTVSPost2010Prop53
 90
        2
102
RTVSPost2010PropOp53
 70
     1
102
RTVSPost2010Prop54
  1
strokes_ogs.tif
102
RTVSPost2010PropOp54
 70
     1
102
RTVSPost2010Prop55
280
     0
102
RTVSPost2010PropOp55
 70
     1
102
RTVSPost2010Prop56
140
1.0
102
RTVSPost2010PropOp56
 70
     1
102
RTVSPost2010Prop57
140
1.0
102
RTVSPost2010PropOp57
 70
     1
  0
XRECORD
  5
4D3
102
{ACAD_REACTORS
330
4D2
102
}
330
4D2
100
AcDbXrecord
280
     1
102
RTVSPropertyOp0
 70
     1
102
RTVSPropertyOp1
 70
     1
102
RTVSPropertyOp2
 70
     1
102
RTVSPropertyOp3
 70
     1
102
RTVSPropertyOp4
 70
     1
102
RTVSPropertyOp5
 70
     1
102
RTVSPropertyOp6
 70
     1
102
RTVSPropertyOp7
 70
     1
102
RTVSPropertyOp8
 70
     1
102
RTVSPropertyOp9
 70
     1
102
RTVSPropertyOp10
 70
     1
102
RTVSPropertyOp11
 70
     1
102
RTVSPropertyOp12
 70
     1
102
RTVSPropertyOp13
 70
     1
102
RTVSPropertyOp14
 70
     1
102
RTVSPropertyOp15
 70
     1
102
RTVSPropertyOp16
 70
     1
102
RTVSPropertyOp17
 70
     1
102
RTVSPropertyOp18
 70
     1
102
RTVSPropertyOp19
 70
     1
102
RTVSPropertyOp20
 70
     1
102
RTVSPropertyOp21
 70
     1
102
RTVSPropertyOp22
 70
     1
102
RTVSPropertyOp23
 70
     1
102
RTVSPropertyOp24
 70
     1
102
RTVSPropertyOp25
 70
     1
102
RTVSPropertyOp26
 70
     1
102
RTVSPropertyOp27
 70
     1
102
RTVSPropertyOp28
 70
     1
102
RTVSPropertyOp29
 70
     1
102
RTVSPropertyOp30
 70
     1
102
RTVSPropertyOp31
 70
     1
102
RTVSPropertyOp32
 70
     1
102
RTVSPropertyOp33
 70
     1
102
RTVSPropertyOp34
 70
     1
102
RTVSPropertyOp35
 70
     1
102
RTVSPropertyOp36
 70
     1
102
RTVSPropertyOp37
 70
     1
102
RTVSPropertyOp38
 70
     1
102
RTVSPropertyOp39
 70
     1
102
RTVSPropertyOp40
 70
     1
102
RTVSPropertyOp41
 70
     1
102
RTVSPropertyOp42
 70
     1
102
RTVSPropertyOp43
 70
     1
102
RTVSPropertyOp44
 70
     1
102
RTVSPropertyOp45
 70
     1
102
RTVSPropertyOp46
 70
     1
102
RTVSPropertyOp47
 70
     1
102
RTVSPropertyOp48
 70
     1
102
RTVSPropertyOp49
 70
     1
102
RTVSPropertyOp50
 70
     1
102
RTVSPropertyOp51
 70
     0
102
RTVSPropertyOp52
 70
     0
102
RTVSPropertyOp53
 70
     1
102
RTVSPropertyOp54
 70
     1
102
RTVSPropertyOp55
 70
     1
102
RTVSPropertyOp56
 70
     1
102
RTVSPropertyOp57
 70
     1
102
RTVSPost2010Prop28
280
     0
102
RTVSPost2010PropOp28
 70
     1
102
RTVSPost2010Prop29
280
     1
102
RTVSPost2010PropOp29
 70
     1
102
RTVSPost2010Prop30
280
     1
102
RTVSPost2010PropOp30
 70
     1
102
RTVSPost2010Prop31
280
     0
102
RTVSPost2010PropOp31
 70
     1
102
RTVSPost2010Prop32
280
     0
102
RTVSPost2010PropOp32
 70
     1
102
RTVSPost2010Prop33
280
     0
102
RTVSPost2010PropOp33
 70
     1
102
RTVSPost2010Prop34
280
     0
102
RTVSPost2010PropOp34
 70
     1
102
RTVSPost2010Prop35
280
     0
102
RTVSPost2010PropOp35
 70
     1
102
RTVSPost2010Prop36
280
     0
102
RTVSPost2010PropOp36
 70
     1
102
RTVSPost2010Prop37
 90
       50
102
RTVSPost2010PropOp37
 70
     1
102
RTVSPost2010Prop38
140
0.0
102
RTVSPost2010PropOp38
 70
     1
102
RTVSPost2010Prop39
140
1.0
102
RTVSPost2010PropOp39
 70
     1
102
RTVSPost2010Prop40
 90
        0
102
RTVSPost2010PropOp40
 70
     1
102
RTVSPost2010Prop41ColorIndex
 90
       18
102
RTVSPost2010Prop41ColorRGB
 90
        0
102
RTVSPost2010PropOp41
 70
     1
102
RTVSPost2010Prop42
 90
       50
102
RTVSPost2010PropOp42
 70
     1
102
RTVSPost2010Prop43
 90
        3
102
RTVSPost2010PropOp43
 70
     1
102
RTVSPost2010Prop44ColorIndex
 90
        5
102
RTVSPost2010Prop44ColorRGB
 90
      255
102
RTVSPost2010PropOp44
 70
     1
102
RTVSPost2010Prop45
280
     0
102
RTVSPost2010PropOp45
 70
     1
102
RTVSPost2010Prop46
 90
       50
102
RTVSPost2010PropOp46
 70
     1
102
RTVSPost2010Prop47
 90
       50
102
RTVSPost2010PropOp47
 70
     1
102
RTVSPost2010Prop48
 90
       50
102
RTVSPost2010PropOp48
 70
     1
102
RTVSPost2010Prop49
280
     0
102
RTVSPost2010PropOp49
 70
     1
102
RTVSPost2010Prop50
 90
       50
102
RTVSPost2010PropOp50
 70
     1
102
RTVSPost2010Prop51ColorIndex
 90
      256
102
RTVSPost2010Prop51ColorRGB
 90
-16777216
102
RTVSPost2010PropOp51
 70
     0
102
RTVSPost2010Prop52
140
1.0
102
RTVSPost2010PropOp52
 70
     0
102
RTVSPost2010Prop53
 90
        2
102
RTVSPost2010PropOp53
 70
     1
102
RTVSPost2010Prop54
  1
strokes_ogs.tif
102
RTVSPost2010PropOp54
 70
     1
102
RTVSPost2010Prop55
280
     0
102
RTVSPost2010PropOp55
 70
     1
102
RTVSPost2010Prop56
140
1.0
102
RTVSPost2010PropOp56
 70
     1
102
RTVSPost2010Prop57
140
1.0
102
RTVSPost2010PropOp57
 70
     1
  0
XRECORD
  5
4E7
102
{ACAD_REACTORS
330
4E6
102
}
330
4E6
100
AcDbXrecord
280
     1
102
RTVSPropertyOp0
 70
     1
102
RTVSPropertyOp1
 70
     1
102
RTVSPropertyOp2
 70
     1
102
RTVSPropertyOp3
 70
     1
102
RTVSPropertyOp4
 70
     1
102
RTVSPropertyOp5
 70
     1
102
RTVSPropertyOp6
 70
     1
102
RTVSPropertyOp7
 70
     1
102
RTVSPropertyOp8
 70
     1
102
RTVSPropertyOp9
 70
     1
102
RTVSPropertyOp10
 70
     1
102
RTVSPropertyOp11
 70
     1
102
RTVSPropertyOp12
 70
     1
102
RTVSPropertyOp13
 70
     1
102
RTVSPropertyOp14
 70
     1
102
RTVSPropertyOp15
 70
     1
102
RTVSPropertyOp16
 70
     1
102
RTVSPropertyOp17
 70
     1
102
RTVSPropertyOp18
 70
     1
102
RTVSPropertyOp19
 70
     1
102
RTVSPropertyOp20
 70
     1
102
RTVSPropertyOp21
 70
     1
102
RTVSPropertyOp22
 70
     1
102
RTVSPropertyOp23
 70
     1
102
RTVSPropertyOp24
 70
     1
102
RTVSPropertyOp25
 70
     1
102
RTVSPropertyOp26
 70
     1
102
RTVSPropertyOp27
 70
     1
102
RTVSPropertyOp28
 70
     1
102
RTVSPropertyOp29
 70
     1
102
RTVSPropertyOp30
 70
     1
102
RTVSPropertyOp31
 70
     1
102
RTVSPropertyOp32
 70
     1
102
RTVSPropertyOp33
 70
     1
102
RTVSPropertyOp34
 70
     1
102
RTVSPropertyOp35
 70
     1
102
RTVSPropertyOp36
 70
     1
102
RTVSPropertyOp37
 70
     1
102
RTVSPropertyOp38
 70
     1
102
RTVSPropertyOp39
 70
     1
102
RTVSPropertyOp40
 70
     1
102
RTVSPropertyOp41
 70
     1
102
RTVSPropertyOp42
 70
     1
102
RTVSPropertyOp43
 70
     1
102
RTVSPropertyOp44
 70
     1
102
RTVSPropertyOp45
 70
     1
102
RTVSPropertyOp46
 70
     1
102
RTVSPropertyOp47
 70
     1
102
RTVSPropertyOp48
 70
     1
102
RTVSPropertyOp49
 70
     1
102
RTVSPropertyOp50
 70
     1
102
RTVSPropertyOp51
 70
     0
102
RTVSPropertyOp52
 70
     0
102
RTVSPropertyOp53
 70
     1
102
RTVSPropertyOp54
 70
     1
102
RTVSPropertyOp55
 70
     1
102
RTVSPropertyOp56
 70
     1
102
RTVSPropertyOp57
 70
     1
102
RTVSPost2010Prop28
280
     0
102
RTVSPost2010PropOp28
 70
     1
102
RTVSPost2010Prop29
280
     1
102
RTVSPost2010PropOp29
 70
     1
102
RTVSPost2010Prop30
280
     1
102
RTVSPost2010PropOp30
 70
     1
102
RTVSPost2010Prop31
280
     0
102
RTVSPost2010PropOp31
 70
     1
102
RTVSPost2010Prop32
280
     0
102
RTVSPost2010PropOp32
 70
     1
102
RTVSPost2010Prop33
280
     0
102
RTVSPost2010PropOp33
 70
     1
102
RTVSPost2010Prop34
280
     0
102
RTVSPost2010PropOp34
 70
     1
102
RTVSPost2010Prop35
280
     0
102
RTVSPost2010PropOp35
 70
     1
102
RTVSPost2010Prop36
280
     0
102
RTVSPost2010PropOp36
 70
     1
102
RTVSPost2010Prop37
 90
       50
102
RTVSPost2010PropOp37
 70
     1
102
RTVSPost2010Prop38
140
0.0
102
RTVSPost2010PropOp38
 70
     1
102
RTVSPost2010Prop39
140
1.0
102
RTVSPost2010PropOp39
 70
     1
102
RTVSPost2010Prop40
 90
        0
102
RTVSPost2010PropOp40
 70
     1
102
RTVSPost2010Prop41ColorIndex
 90
       18
102
RTVSPost2010Prop41ColorRGB
 90
        0
102
RTVSPost2010PropOp41
 70
     1
102
RTVSPost2010Prop42
 90
       50
102
RTVSPost2010PropOp42
 70
     1
102
RTVSPost2010Prop43
 90
        3
102
RTVSPost2010PropOp43
 70
     1
102
RTVSPost2010Prop44ColorIndex
 90
        5
102
RTVSPost2010Prop44ColorRGB
 90
      255
102
RTVSPost2010PropOp44
 70
     1
102
RTVSPost2010Prop45
280
     0
102
RTVSPost2010PropOp45
 70
     1
102
RTVSPost2010Prop46
 90
       50
102
RTVSPost2010PropOp46
 70
     1
102
RTVSPost2010Prop47
 90
       50
102
RTVSPost2010PropOp47
 70
     1
102
RTVSPost2010Prop48
 90
       50
102
RTVSPost2010PropOp48
 70
     1
102
RTVSPost2010Prop49
280
     0
102
RTVSPost2010PropOp49
 70
     1
102
RTVSPost2010Prop50
 90
       50
102
RTVSPost2010PropOp50
 70
     1
102
RTVSPost2010Prop51ColorIndex
 90
      256
102
RTVSPost2010Prop51ColorRGB
 90
-16777216
102
RTVSPost2010PropOp51
 70
     0
102
RTVSPost2010Prop52
140
1.0
102
RTVSPost2010PropOp52
 70
     0
102
RTVSPost2010Prop53
 90
        2
102
RTVSPost2010PropOp53
 70
     1
102
RTVSPost2010Prop54
  1
strokes_ogs.tif
102
RTVSPost2010PropOp54
 70
     1
102
RTVSPost2010Prop55
280
     0
102
RTVSPost2010PropOp55
 70
     1
102
RTVSPost2010Prop56
140
1.0
102
RTVSPost2010PropOp56
 70
     1
102
RTVSPost2010Prop57
140
1.0
102
RTVSPost2010PropOp57
 70
     1
  0
XRECORD
  5
4DD
102
{ACAD_REACTORS
330
4DC
102
}
330
4DC
100
AcDbXrecord
280
     1
102
RTVSPropertyOp0
 70
     1
102
RTVSPropertyOp1
 70
     1
102
RTVSPropertyOp2
 70
     1
102
RTVSPropertyOp3
 70
     1
102
RTVSPropertyOp4
 70
     1
102
RTVSPropertyOp5
 70
     1
102
RTVSPropertyOp6
 70
     1
102
RTVSPropertyOp7
 70
     1
102
RTVSPropertyOp8
 70
     1
102
RTVSPropertyOp9
 70
     1
102
RTVSPropertyOp10
 70
     1
102
RTVSPropertyOp11
 70
     1
102
RTVSPropertyOp12
 70
     1
102
RTVSPropertyOp13
 70
     1
102
RTVSPropertyOp14
 70
     1
102
RTVSPropertyOp15
 70
     1
102
RTVSPropertyOp16
 70
     1
102
RTVSPropertyOp17
 70
     1
102
RTVSPropertyOp18
 70
     1
102
RTVSPropertyOp19
 70
     1
102
RTVSPropertyOp20
 70
     1
102
RTVSPropertyOp21
 70
     1
102
RTVSPropertyOp22
 70
     1
102
RTVSPropertyOp23
 70
     1
102
RTVSPropertyOp24
 70
     1
102
RTVSPropertyOp25
 70
     1
102
RTVSPropertyOp26
 70
     1
102
RTVSPropertyOp27
 70
     1
102
RTVSPropertyOp28
 70
     1
102
RTVSPropertyOp29
 70
     1
102
RTVSPropertyOp30
 70
     1
102
RTVSPropertyOp31
 70
     1
102
RTVSPropertyOp32
 70
     1
102
RTVSPropertyOp33
 70
     1
102
RTVSPropertyOp34
 70
     1
102
RTVSPropertyOp35
 70
     1
102
RTVSPropertyOp36
 70
     1
102
RTVSPropertyOp37
 70
     1
102
RTVSPropertyOp38
 70
     1
102
RTVSPropertyOp39
 70
     1
102
RTVSPropertyOp40
 70
     1
102
RTVSPropertyOp41
 70
     1
102
RTVSPropertyOp42
 70
     1
102
RTVSPropertyOp43
 70
     1
102
RTVSPropertyOp44
 70
     1
102
RTVSPropertyOp45
 70
     1
102
RTVSPropertyOp46
 70
     1
102
RTVSPropertyOp47
 70
     1
102
RTVSPropertyOp48
 70
     1
102
RTVSPropertyOp49
 70
     1
102
RTVSPropertyOp50
 70
     1
102
RTVSPropertyOp51
 70
     0
102
RTVSPropertyOp52
 70
     0
102
RTVSPropertyOp53
 70
     1
102
RTVSPropertyOp54
 70
     1
102
RTVSPropertyOp55
 70
     1
102
RTVSPropertyOp56
 70
     1
102
RTVSPropertyOp57
 70
     1
102
RTVSPost2010Prop28
280
     0
102
RTVSPost2010PropOp28
 70
     1
102
RTVSPost2010Prop29
280
     1
102
RTVSPost2010PropOp29
 70
     1
102
RTVSPost2010Prop30
280
     1
102
RTVSPost2010PropOp30
 70
     1
102
RTVSPost2010Prop31
280
     0
102
RTVSPost2010PropOp31
 70
     1
102
RTVSPost2010Prop32
280
     0
102
RTVSPost2010PropOp32
 70
     1
102
RTVSPost2010Prop33
280
     0
102
RTVSPost2010PropOp33
 70
     1
102
RTVSPost2010Prop34
280
     0
102
RTVSPost2010PropOp34
 70
     1
102
RTVSPost2010Prop35
280
     0
102
RTVSPost2010PropOp35
 70
     1
102
RTVSPost2010Prop36
280
     0
102
RTVSPost2010PropOp36
 70
     1
102
RTVSPost2010Prop37
 90
       50
102
RTVSPost2010PropOp37
 70
     1
102
RTVSPost2010Prop38
140
0.0
102
RTVSPost2010PropOp38
 70
     1
102
RTVSPost2010Prop39
140
1.0
102
RTVSPost2010PropOp39
 70
     1
102
RTVSPost2010Prop40
 90
        0
102
RTVSPost2010PropOp40
 70
     1
102
RTVSPost2010Prop41ColorIndex
 90
       18
102
RTVSPost2010Prop41ColorRGB
 90
        0
102
RTVSPost2010PropOp41
 70
     1
102
RTVSPost2010Prop42
 90
       50
102
RTVSPost2010PropOp42
 70
     1
102
RTVSPost2010Prop43
 90
        3
102
RTVSPost2010PropOp43
 70
     1
102
RTVSPost2010Prop44ColorIndex
 90
        5
102
RTVSPost2010Prop44ColorRGB
 90
      255
102
RTVSPost2010PropOp44
 70
     1
102
RTVSPost2010Prop45
280
     0
102
RTVSPost2010PropOp45
 70
     1
102
RTVSPost2010Prop46
 90
       50
102
RTVSPost2010PropOp46
 70
     1
102
RTVSPost2010Prop47
 90
       50
102
RTVSPost2010PropOp47
 70
     1
102
RTVSPost2010Prop48
 90
       50
102
RTVSPost2010PropOp48
 70
     1
102
RTVSPost2010Prop49
280
     0
102
RTVSPost2010PropOp49
 70
     1
102
RTVSPost2010Prop50
 90
       50
102
RTVSPost2010PropOp50
 70
     1
102
RTVSPost2010Prop51ColorIndex
 90
      256
102
RTVSPost2010Prop51ColorRGB
 90
-16777216
102
RTVSPost2010PropOp51
 70
     0
102
RTVSPost2010Prop52
140
1.0
102
RTVSPost2010PropOp52
 70
     0
102
RTVSPost2010Prop53
 90
        2
102
RTVSPost2010PropOp53
 70
     1
102
RTVSPost2010Prop54
  1
strokes_ogs.tif
102
RTVSPost2010PropOp54
 70
     1
102
RTVSPost2010Prop55
280
     0
102
RTVSPost2010PropOp55
 70
     1
102
RTVSPost2010Prop56
140
1.0
102
RTVSPost2010PropOp56
 70
     1
102
RTVSPost2010Prop57
140
1.0
102
RTVSPost2010PropOp57
 70
     1
  0
XRECORD
  5
4E5
102
{ACAD_REACTORS
330
4E4
102
}
330
4E4
100
AcDbXrecord
280
     1
102
RTVSPropertyOp0
 70
     1
102
RTVSPropertyOp1
 70
     1
102
RTVSPropertyOp2
 70
     1
102
RTVSPropertyOp3
 70
     1
102
RTVSPropertyOp4
 70
     1
102
RTVSPropertyOp5
 70
     1
102
RTVSPropertyOp6
 70
     1
102
RTVSPropertyOp7
 70
     1
102
RTVSPropertyOp8
 70
     1
102
RTVSPropertyOp9
 70
     1
102
RTVSPropertyOp10
 70
     1
102
RTVSPropertyOp11
 70
     1
102
RTVSPropertyOp12
 70
     1
102
RTVSPropertyOp13
 70
     1
102
RTVSPropertyOp14
 70
     1
102
RTVSPropertyOp15
 70
     1
102
RTVSPropertyOp16
 70
     1
102
RTVSPropertyOp17
 70
     1
102
RTVSPropertyOp18
 70
     1
102
RTVSPropertyOp19
 70
     1
102
RTVSPropertyOp20
 70
     1
102
RTVSPropertyOp21
 70
     1
102
RTVSPropertyOp22
 70
     1
102
RTVSPropertyOp23
 70
     1
102
RTVSPropertyOp24
 70
     1
102
RTVSPropertyOp25
 70
     1
102
RTVSPropertyOp26
 70
     1
102
RTVSPropertyOp27
 70
     1
102
RTVSPropertyOp28
 70
     1
102
RTVSPropertyOp29
 70
     1
102
RTVSPropertyOp30
 70
     1
102
RTVSPropertyOp31
 70
     1
102
RTVSPropertyOp32
 70
     1
102
RTVSPropertyOp33
 70
     1
102
RTVSPropertyOp34
 70
     1
102
RTVSPropertyOp35
 70
     1
102
RTVSPropertyOp36
 70
     1
102
RTVSPropertyOp37
 70
     1
102
RTVSPropertyOp38
 70
     1
102
RTVSPropertyOp39
 70
     1
102
RTVSPropertyOp40
 70
     1
102
RTVSPropertyOp41
 70
     1
102
RTVSPropertyOp42
 70
     1
102
RTVSPropertyOp43
 70
     1
102
RTVSPropertyOp44
 70
     1
102
RTVSPropertyOp45
 70
     1
102
RTVSPropertyOp46
 70
     1
102
RTVSPropertyOp47
 70
     1
102
RTVSPropertyOp48
 70
     1
102
RTVSPropertyOp49
 70
     1
102
RTVSPropertyOp50
 70
     1
102
RTVSPropertyOp51
 70
     0
102
RTVSPropertyOp52
 70
     0
102
RTVSPropertyOp53
 70
     1
102
RTVSPropertyOp54
 70
     1
102
RTVSPropertyOp55
 70
     1
102
RTVSPropertyOp56
 70
     1
102
RTVSPropertyOp57
 70
     1
102
RTVSPost2010Prop28
280
     0
102
RTVSPost2010PropOp28
 70
     1
102
RTVSPost2010Prop29
280
     1
102
RTVSPost2010PropOp29
 70
     1
102
RTVSPost2010Prop30
280
     1
102
RTVSPost2010PropOp30
 70
     1
102
RTVSPost2010Prop31
280
     0
102
RTVSPost2010PropOp31
 70
     1
102
RTVSPost2010Prop32
280
     0
102
RTVSPost2010PropOp32
 70
     1
102
RTVSPost2010Prop33
280
     0
102
RTVSPost2010PropOp33
 70
     1
102
RTVSPost2010Prop34
280
     0
102
RTVSPost2010PropOp34
 70
     1
102
RTVSPost2010Prop35
280
     0
102
RTVSPost2010PropOp35
 70
     1
102
RTVSPost2010Prop36
280
     0
102
RTVSPost2010PropOp36
 70
     1
102
RTVSPost2010Prop37
 90
       50
102
RTVSPost2010PropOp37
 70
     1
102
RTVSPost2010Prop38
140
0.0
102
RTVSPost2010PropOp38
 70
     1
102
RTVSPost2010Prop39
140
1.0
102
RTVSPost2010PropOp39
 70
     1
102
RTVSPost2010Prop40
 90
        0
102
RTVSPost2010PropOp40
 70
     1
102
RTVSPost2010Prop41ColorIndex
 90
       18
102
RTVSPost2010Prop41ColorRGB
 90
        0
102
RTVSPost2010PropOp41
 70
     1
102
RTVSPost2010Prop42
 90
       50
102
RTVSPost2010PropOp42
 70
     1
102
RTVSPost2010Prop43
 90
        3
102
RTVSPost2010PropOp43
 70
     1
102
RTVSPost2010Prop44ColorIndex
 90
        5
102
RTVSPost2010Prop44ColorRGB
 90
      255
102
RTVSPost2010PropOp44
 70
     1
102
RTVSPost2010Prop45
280
     0
102
RTVSPost2010PropOp45
 70
     1
102
RTVSPost2010Prop46
 90
       50
102
RTVSPost2010PropOp46
 70
     1
102
RTVSPost2010Prop47
 90
       50
102
RTVSPost2010PropOp47
 70
     1
102
RTVSPost2010Prop48
 90
       50
102
RTVSPost2010PropOp48
 70
     1
102
RTVSPost2010Prop49
280
     0
102
RTVSPost2010PropOp49
 70
     1
102
RTVSPost2010Prop50
 90
       50
102
RTVSPost2010PropOp50
 70
     1
102
RTVSPost2010Prop51ColorIndex
 90
      256
102
RTVSPost2010Prop51ColorRGB
 90
-16777216
102
RTVSPost2010PropOp51
 70
     0
102
RTVSPost2010Prop52
140
1.0
102
RTVSPost2010PropOp52
 70
     0
102
RTVSPost2010Prop53
 90
        2
102
RTVSPost2010PropOp53
 70
     1
102
RTVSPost2010Prop54
  1
strokes_ogs.tif
102
RTVSPost2010PropOp54
 70
     1
102
RTVSPost2010Prop55
280
     0
102
RTVSPost2010PropOp55
 70
     1
102
RTVSPost2010Prop56
140
1.0
102
RTVSPost2010PropOp56
 70
     1
102
RTVSPost2010Prop57
140
1.0
102
RTVSPost2010PropOp57
 70
     1
  0
ENDSEC
  0
EOF
